Cifra Club

Tão Profundo

Vineyard

Cifra: Principal
exibições 196.273
Tom: C#
[Intro]  F#  C#

E|---16--16--16------16--16--16--13--13--13--11--11--11--13-11----------|
B|-14--14--14--14--14--14--14--14--14--14--14--14--14----------14-11/14-|
G|----------------------------------------------------------------------|
D|----------------------------------------------------------------------|
A|----------------------------------------------------------------------|
E|----------------------------------------------------------------------| 

[Riff 1]                       [Riff 02]

E|--------------------------||---------------------------|
B|-9/11~---11/13~-----------||-13----11------------------|
G|--------------------------||----10----13--10-----------|
D|--------------------------||---------------------------|
A|--------------------------||---------------------------|
E|--------------------------||---------------------------|

 F#           A#m   [Riff 01]
Nada nos separará           
 F#                       A#m  [Riff 02]
Dos laços do Teu grande amor      
 F#
De longe ouvimos o amor que chama
 A#m
Paixão profunda, bondade e graça   
 G#
Se derramando

F#
É tão profundo tão imenso, e cobre-nos  
 C#
Furioso, Poderoso, Abraça-nos  
 F#
Só Ele pode devolver
                C#
A vida aos corações 

F#                       A#m   [Riff 01]
O pai que seu filho nos deu              
F#                        A#m  [Riff 02]
O filho que por todos morreu          
F#
Em nós derrama, amor e graça 
A#m
E nos convida a Sua mesa
 G#
Nos alcançando  
 
F#
É tão profundo tão imenso, e cobre-nos 
 C#
Furioso, Poderoso, Abraça-nos
 F#
Só Ele pode devolver
            C#
A vida aos corações 

[Solo]  A#m  G#/C  F#/C#

E|-------------------------------------------------------------------|
B|-11-11-11-9---11-11-11-9---11-11-11-9---11-11-11-9-----------------|
G|-------------------------------------------------------------------|
D|-8--8--8--6---8--8--8--6---8--8--8--6---8--8--8--6-----------------|
A|-------------------------------------------------------------------|
E|-------------------------------------------------------------------|

E|-------------------------------------------------------------------|
B|-13--13--13--11---13--13--13--11---13--13--13--11---13--13--13--11-|
G|-------------------------------------------------------------------|
D|-10--10--10--8----10--10--10--8----10--10--10--8----10--10--10--8--|
A|-------------------------------------------------------------------|
E|-------------------------------------------------------------------|

E|-------------------------------------------------------------------|
B|-14--14--14--13---14--14--14--13---14--14--14--13---14--14--14--13-|
G|-------------------------------------------------------------------|
D|-11--11--11--10---11--11--11--10---11--11--11--10---11--11--11--10-|
A|-------------------------------------------------------------------|
E|-------------------------------------------------------------------| 

F#
É tão profundo tão imenso, e cobre-nos  
 C#
Furioso, Poderoso, Abraça-nos  
 F#
Só Ele pode devolver
            C#
A vida aos corações

[Passagem]

E|-9----9----9--8----11----11-----------|
B|--9-9--9-9--9---9-9---9-9--9----------|
G|--------------------------------------|
D|--------------------------------------|
A|--------------------------------------|
E|--------------------------------------|

F#
É tão profundo tão imenso, e cobre-nos  
 C#
Furioso, Poderoso, Abraça-nos 
 F#
Só Ele pode devolver
            C#
A vida aos corações

0 comentários

    mostrar mais comentários

    Conseguiu tocar?

    10tocaram2ainda não

    Grave um vídeo tocando Tão Profundo e mande pra gente!

    00:00 / 00:00
    outros vídeos desta música
    repetirqualidadeautomática
    Outro vídeos desta música
      00:00 / 00:00
      automática
      OK