Cifra Club

Tão Profundo

Vineyard

Cifra: Principal (violão e guitarra)
Selo Cifra Club: esta cifra foi revisada para atender aos critérios oficiais da nossa Equipe de Qualidade.
tom: Db
[Intro] F#  C#

E|---17--17--17------17--17--17--14--14--14--12--12--12--14-12----------|
B|-15--15--15--15--15--15--15--15--15--15--15--15--15----------15-12/15-|
G|----------------------------------------------------------------------|
D|----------------------------------------------------------------------|
A|----------------------------------------------------------------------|
E|----------------------------------------------------------------------|


[[Riff 1]Riff 02]

E|---------------------------| |---------------------------|
B|-10/12~---12/14~-----------| |-14----12------------------|
G|---------------------------| |----11----14--11-----------|
D|---------------------------| |---------------------------|
A|---------------------------| |---------------------------|
E|---------------------------| |---------------------------|


 F#            A#m
Nada nos separará
 F#                      A#m
Dos laços do Teu grande amor
 F#
De longe ouvimos o amor que chama
   A#m
Paixão profunda, bondade e graça
    G#
Se derramando

F#
É tão profundo tão imenso, e cobre-nos
 C#
Furioso, Poderoso, Abraça-nos
 F#
Só Ele pode devolver
                C#
A vida aos corações

F#                       A#m
O pai que seu filho nos deu
F#                        A#m
O filho que por todos morreu
   F#
Em nós derrama, amor e graça
   A#m
E nos convida a Sua mesa
    G#
Nos alcançando

F#
É tão profundo tão imenso, e cobre-nos
 C#
Furioso, Poderoso, Abraça-nos
F#
Só Ele pode devolver
              C#
A vida aos corações

[Solo] A#m  G#  C#  F#  C#

E|-----------------------------------------------------------------------|
B|-12-12-12-10---12-12-12-10---12-12-12-10---12-12-12-10-----------------|
G|-----------------------------------------------------------------------|
D|-8--8--8--7----8--8--8--7----8--8--8--7----8--8--8--7------------------|
A|-----------------------------------------------------------------------|
E|-----------------------------------------------------------------------|

E|-------------------------------------------------------------------|
B|-14--14--14--12---14--14--14--12---14--14--14--12---14--14--14--12-|
G|-------------------------------------------------------------------|
D|-11--11--11--8----11--11--11--8----11--11--11--8----11--11--11--8--|
A|-------------------------------------------------------------------|
E|-------------------------------------------------------------------|

E|-------------------------------------------------------------------|
B|-15--15--15--14---15--15--15--14---15--15--15--14---15--15--15--14-|
G|-------------------------------------------------------------------|
D|-12--12--12--11---12--12--12--11---12--12--12--11---12--12--12--11-|
A|-------------------------------------------------------------------|
E|-------------------------------------------------------------------|


F#
É tão profundo tão imenso, e cobre-nos
 C#
Furioso, Poderoso, Abraça-nos
 F#
Só Ele pode devolver
            C#
A vida aos corações

[Passagem]

E|-10------10------10---9------12------12------------|
B|---10-10---10-10---10---10-10---10-10--10----------|
G|---------------------------------------------------|
D|---------------------------------------------------|
A|---------------------------------------------------|
E|---------------------------------------------------|


F#
É tão profundo tão imenso, e cobre-nos
 C#
Furioso, Poderoso, Abraça-nos
 F#
Só Ele pode devolver
            C#
A vida aos corações
00:00 / 00:00
Outros vídeos desta música
Repetir
Outros vídeos desta música
423.896 exibições
    • ½ Tom
    • A
    • Bb
    • B
    • C
    • Db
    • D
    • Eb
    • E
    • F
    • F#
    • G
    • Ab
  • Adicionar à lista

Afinação da cifra

Afinador online

    0 comentários

    Ver todos os comentários

    Entre para o Cifra Club PRO

    Tenha acesso a benefícios exclusivos no App e no Site

    • Chega de anúncios

    • Mais recursos no app do Afinador

    • Atendimento Prioritário

    • Aumente seu limite de lista

    • Ajude a produzir mais conteúdo

    00:00 / 00:00

    Cifra Club Pro

    Aproveite o Cifra Club com benefícios exclusivos e sem anúncios
    Cifra Club Pro
    Aproveite o Cifra Club com benefícios exclusivos e sem anúncios
    OK