Cifra Club

Tu És Bom

Vineyard

Cifra: Principal (violão e guitarra)
Tom: B (forma dos acordes no tom de A) Capotraste na 2ª casa
[Intro] G  C9

E|-------------------------------12-12-12-14-14-14---------------------------12-12-12-------------|
B|-/14-14-14-14-14-14-14-14-12-12-----------------------------------------------------14-14-14-14-|
G|-------------------------------------------------11-11-11-11-11-11-14-14-14---------------------|
D|------------------------------------------------------------------------------------------------|
A|------------------------------------------------------------------------------------------------|
E|------------------------------------------------------------------------------------------------|

G
Em alta voz direi
A todos vou contar
C9
Tua bondade, eu sei
Não pode acabar
Em7
O teu eterno amor
Me acompanhará
G               D9
Não posso acreditar

G
Cantarei porque tu és bom
Dançarei porque tu és bom
C9
Gritarei porque tu és bom
Tu és bom pra mim

( G  C9 )

E|-------------------------------12-12-12-14-14-14--------------------------12-12-12--------------|
B|-/14-14-14-14-14-14-14-14-12-12---------------------------------------------------14-14-14-14---|
G|------------------------------------------------11-11-11-11-11-11-14-14-14----------------------|
D|------------------------------------------------------------------------------------------------|
A|------------------------------------------------------------------------------------------------|
E|------------------------------------------------------------------------------------------------|

E|------------------------------12-12-12-14-14-14-------------------------------------------------|
B|-14-14-14-14-14-14-14-14-12-12------------------------------------------------------------------|
G|------------------------------------------------11-11-11-11-11-11-14-14-14-14-14----------------|
D|------------------------------------------------------------------------------------------------|
A|------------------------------------------------------------------------------------------------|
E|------------------------------------------------------------------------------------------------|

G
Em mesmo quando estou
Em meio à escuridão
C9
O teu amor reluz
Me acende o coração
Em7
Incomparável Deus
Não me abandonará
G                D9
Não posso acreditar

         Am7             C
Com meu coração eu proclamarei
           G
Que tu és bom, tu és bom
       Am7           C
Na tribulação eu me lembrarei
           G          D9
Que tu és bom, tu és bom
exibições 1.038
Acordes para:
    Composição: Brian Johnson / Jeremy Riddle Colaboração e revisão:
    • Keven Farias

    0 comentários

    mostrar mais comentários

    Conseguiu tocar?

    0 tocaram 0 ainda não

    Grave um vídeo tocando Tu És Bom e mande pra gente!

    00:00 / 00:00
    outros vídeos desta música
    repetir qualidade Automático
    Outros vídeos desta música
    00:00 / 00:00
    Automático
    OK