Cifra Club

Lua e Estrela

Vinicius Cantuaria

Cifra: Principal (violão e guitarra)
tom: A
     A7M
     Q    Q    Q    Q          Q    Q    Q    Q       Q    Q    Q    Q
E|--0---------0----------||---3----3----3----3----|--2----0----4----4----|
B|--2---------2----------||---3----3----3----3----|--3----0----0----0----|
G|--1----1---------1----*||*--0----0----0----0----|--0----0----1----1----|
D|--2-------------------*||*----------------------|----------------------|
A|--0--------------------||---3-------------------|--3----3----3---------|
E|-----------------------||-----------------------|----------------------|

                                                     A7M
  Q    Q    Q    Q       Q    Q    Q    Q       Q    Q    Q    Q
--4----3----0----3----|--3----3----3----2----|--0----0----3----3----|
--0----0----0----3----|--3----3----3----3----|-------2----3----3----|
--1----0----0----2----|--2----2----2----2----|-------1----0----0----|
-----------------0----|-----------------0----|-------2--------------|
-------3----3---------|----------------------|-------0----3---------|
----------------------|----------------------|----------------------|

  Q    Q    Q    Q       Q    Q    Q    Q       Q    Q    Q    Q
--3----3----2----0----|--4----4----4----4----|--3----0----3----3----|
--3----3----3----0----|--0----0----0----0----|--0----0----3----3----|
--0----0----0----0----|--1----1----1----1----|--1----0----2----2----|
----------------------|----------------------|------------0---------|
------------3----3----|--3-------------------|--3----3--------------|
----------------------|----------------------|----------------------|

  Q    Q    Q    Q       Q    Q    Q    Q
--3----3----3----2----|--0----4---------4-----||-------||
--3----3----3----3----|-------5---------5-----||-------||
--2----2----2----2----|-------4----4---------*||-------||
-----------------0----|----------------------*||-------||
----------------------|-----------------------||-------||
----------------------|-------0---------------||-------||

W - whole
H - half
Q - quarter
E|- 8th
S - 16th
T - 32nd
X - 64th
. - note dotted
|-n-|  - n-tuplets

L - tied note
x - dead note
G|- grace note
(n) - ghost note
> - accentuded note
NH - natural harmonic
AH - artificial harmonic
TH - tapped harmonic
SH - semi harmonic
PH - pitch harmonic
h - hammer on
p - pull off
B|- bend
br - bendRelease
pb - preBend
pbr - preBendRelease
brb - bendReleaseBend
\n/ - tremolo bar dip
\n - tremolo bar dive
-/n - tremolo bar Release up
/n\ - tremolo bar inverted dip
/n - tremolo bar return
-\n - tremolo bar Release down
S - shift slide
s - legato slide
/ -  slide into from below or out of upwards
\ -  slide into from above or out of downwards
~ - vibrato
W - wide vibrato
tr - trill
TP - tremolo picking
T - tapping
S - slap
P - pop
< - fade in
^ - brush up
v - brush down
00:00 / 00:00
Outros vídeos desta música
Repetir
Outros vídeos desta música
Composição de Vinicius Cantuária
Colaboração e revisão:
  • Ednaldo Souza
6.356 exibições
    • ½ Tom
    • A
    • Bb
    • B
    • C
    • Db
    • D
    • Eb
    • E
    • F
    • F#
    • G
    • Ab
  • Adicionar à lista

    0 comentários

    Ver todos os comentários

    Entre para oCifra Club PRO

    Tenha acesso a benefícios exclusivos no App e no Site

    • Chega de anúncios

    • Prioridade de compra em lançamentos

    • Mais recursos no app do Afinador

    • Atendimento Prioritário

    • Descontos nos produtos Cifra Club

    • Ajude a produzir mais conteúdo

    00:00 / 00:00

    Cifra Club Pro

    Aproveite o Cifra Club com benefícios exclusivos e sem anúncios
    Cifra Club Pro
    Aproveite o Cifra Club com benefícios exclusivos e sem anúncios
    OK