Cifra Club

Samba de Orly

Vinicius de Moraes

Cifra: Principal (violão e guitarra)
tom: C
[Intro]

E|--8-------------8-----------8------------------------|
B|--10--------10--9--9-----9--8--8---------------------|
G|--9---9-----9---7--7-----7--5--5---------------------|
D|-----------------------------------------------------|
A|--9------9------8-----8-----7-----7------------------|
E|-----------------------------------------------------|

E|--8/12--12--12--10-----------------------------------|
B|--------------------13-----12--10--------------------|
G|-----------------------------------------------------|
D|-----------------------------------------------------|
A|------------0-----------0----------------------------|
E|-----------------------------------------------------|

E|-----------8--8--8--7--5-----------------------------|
B|-----7-----7-----7-----7--8--6--8--------5--5-----5--|
G|-----5-----5-----5-----5-----5--------5--4--4-----4--|
D|--0-----0--------0-----0-----0-----7-----3-----------|
A|-----------------------------------------4-----4-----|
E|-----------------------------------------------------|

C7M       F#m7(5-)  B7      Em7
Vai meu irmão, pegue esse avião
A7(9-)      Dm7      C7(5+)   F7M
Você tem razão de correr assim
        Em7(5-)  Am
Desse frio mas veja
               D7
O meu Rio de Janeiro
                   Dm7         G7(13)
Antes que um aventureiro lance mão
C7M     F#m7(5-)  B7   Em7  A7(9-)       Dm7
Pede perdão pela omissão um tanto forçada 

Pela duração desta temporada
        C7(5+)  F7M
Mas não diga nada
       Fm7    Em7
Que me viu chorando
       A7(9-)
E pros da pesada
Dm7        G7(9)  C7M
Diz que eu vou levando
        C7    F7M
Vê como é que anda
       Fm7    Em7
Aquela vida à toa
       A7(9-)  Dm7
E se puder me manda
       G7(9)  C7M
Uma notícia boa
00:00 / 00:00
Outros vídeos desta música
Repetir
Outros vídeos desta música
Composição de Cho Buarque / Toquinho / Vinícius de Moraes
Colaboração e revisão:
  • Murilo :)
  • Felipe Castro
89.701 exibições
    • ½ Tom
    • A
    • Bb
    • B
    • C
    • Db
    • D
    • Eb
    • E
    • F
    • F#
    • G
    • Ab
  • Adicionar à lista

    0 comentários

    Ver todos os comentários

    Conseguiu tocar?

    1 Tocaram 0 Ainda não

    Grave um vídeo tocando Samba de Orly e nos envie!

    Entre para oCifra Club PRO

    Tenha acesso a benefícios exclusivos no App e no Site

    • Chega de anúncios

    • Prioridade de compra em lançamentos

    • Mais recursos no app do Afinador

    • Atendimento Prioritário

    • Descontos nos produtos Cifra Club

    • Ajude a produzir mais conteúdo

    00:00 / 00:00

    Cifra Club Pro

    Aproveite o Cifra Club com benefícios exclusivos e sem anúncios
    Cifra Club Pro
    Aproveite o Cifra Club com benefícios exclusivos e sem anúncios
    OK