Cifra Club

Nada número dos

Viniloversus

Cifra: Principal (violão e guitarra)
tom: D

Intro
    B                          A                   G
E|--------------------------------------------------------------------/|
B|--------------------------------------------------------------------/|
G|--8--x-x-x-x--8-8--x-x-x-x---14-14-14--14-14-14--12--12-12-12-12-12-/| (2)
D|--9--x-x-x-x--9-9--x-x-x-x---14-14-14--14-14-14--12--12-12-12-12-12-/|
A|--9--x-x-x-x--9-9--x-x-x-x---12-12-12--12-12-12--10--10-10-10-10-10-/|
E|--7--x-x-x-x--7-7--x-x-x-x------------------------------------------/|

B                          D     D#     B
Algo aqui esta mal, algo anda fuera de lugar
                     D
y tu lo sabes mas que yo,
D#             B         D     D#
no digas que no es asi, yo te vi,
B                D    D#
lo senti en tu miradaaa,

B              B
Nada se me va, nada se me va,
               A    G
nada se me queda,
B              B
nada se me va, nada se me va,
               A G
nada se me queda.
B                   A              G
Nadaaa, nada se me vaaa, nada se vaa, nada
       B
se me queda,

B                D       D#
Tu eres una mas, no me niegues
D#        B                                 D
que aun estas atada a un vicio que hace mal,
D#           B
que a ti te da igual que a mi
D       D# B                   D D#
yo lo vi, lo senti en tu miradaaa.

B              B
Nada se me va, nada se me va,
               A    G
nada se me queda,
B              B
nada se me va, nada se me va,
               A G
nada se me queda.

B                   A              G
Nadaaa, nada se me vaaa, nada se vaa, nada
       B
se me queda,

B                   A              G
Nadaaa, nada se me vaaa, nada se vaa, nada
       B
se me queda,


Solo

E|------------------------------------------------/|
B|------------------------------------------------/|
G|-----7--9------7----9b-9b-9b------7--9----7--9b-/|
D|--7----------7------------------7-------7-------/|
A|------------------------------------------------/|
E|------------------------------------------------/|

E|--------------------------/|
B|--------------------------/|
G|--7--9-9-9-9-11-11-11-11--/|
D|-7------------------------/|
A|--------------------------/|
E|--------------------------/|

E|-------------------------------------------------------------/|
B|-------------------------------------------------------------/|
G|---9--11---9--11b-11-11-11-11---9--11---9--11-11-11-11--9--8-/|
D|--9------9--------------------9--------9---------------------/|
A|-------------------------------------------------------------/|
E|-------------------------------------------------------------/|

E|-------------------/|
B|-------------------/|
G|--9--11----11--11--/|
D|-9--------9-----11-/|
A|-------------------/|
E|-------------------/|

B                          D     D#        B
Algo aqui esta mal, algo anda fuera de lugar y tu lo sabes
           D     D#      B          D     D#
mas que yo, no digas que no es asi yo te vi
B                   D D#
lo senti en tu mirada...

B                   A                G
Nadaaa, nada se me vaaa, nada se me vaa, nada
         B
se me queda,

B                         A                   G
Nada Nada Nada  se me va va va, nada se me va va va,

                 B  D D#  D D# G
Nada se me quedaaa....
00:00 / 00:00
Outros vídeos desta música
Repetir
Outros vídeos desta música
Compositor não encontrado.
2 exibições
    • ½ Tom
    • A
    • Bb
    • B
    • C
    • Db
    • D
    • Eb
    • E
    • F
    • F#
    • G
    • Ab
  • Adicionar à lista

    0 comentários

    Ver todos os comentários

    Entre para oCifra Club PRO

    Tenha acesso a benefícios exclusivos no App e no Site

    • Chega de anúncios

    • Prioridade de compra em lançamentos

    • Mais recursos no app do Afinador

    • Atendimento Prioritário

    • Descontos nos produtos Cifra Club

    • Ajude a produzir mais conteúdo

    00:00 / 00:00

    Cifra Club Pro

    Aproveite o Cifra Club com benefícios exclusivos e sem anúncios
    Cifra Club Pro
    Aproveite o Cifra Club com benefícios exclusivos e sem anúncios
    OK