Cifra Club

Echoes

Vinnie Moore

Cifra: Principal (violão e guitarra)
tom: G
    G5
E|----------------------------------------------------------|
B|----------------------------------------------------------|
G|-12-12-12-12-12-12-----------12-12-12-12-12-12------------|
D|-12-12-12-12-12-12-----------12-12-12-12-12-12------------|
A|-10-10-10-10-10-10-----------10-10-10-10-10-10------------|
E|-------------------10-10h12--------------------10-10h12---|
    E5
E|----------------------------------------|=================|
B|----------------------------------------|=================|
G|-9-9-9-9-9-9---------9-9-9-9-9-9--------|=================|
D|-9-9-9-9-9-9---------9-9-9-9-9-9--------|=================|
A|-7-7-7-7-7-7--5-5h7--7-7-7-7-7-7--5-5h7-|=================|
E|----------------------------------------|=================|

E|----------------------------------------------------------|
B|-15-15-13-12----12------15-15-13-12----12-----------------|
G|-------------14----12---------------14----12--11-11h12p11-|
D|----------------------------------------------------------|
A|----------------------------------------------------------|
E|----------------------------------------------------------|

E|--------------------|-------------------------------------|
B|--------------------|-------------------------------------|
G|-9h11p9-7h9p7-6h7p6-|-------------------------------------|
D|--------------------|------------Descidinha---------------|
A|--------------------|-essa parte eu ainda não sei fazer!--|
E|--------------------|-------------------------------------|

E|---------------------------------------------------------------|
B|--------------------12-13-12-----------------------------------|
G|-12b14r12-----12-14----------14-12--14b16-14-12-11-11h12p11----|
D|-----------12-----------------------------------------------14-|
A|---------------------------------------------------------------|
E|---------------------------------------------------------------|

E|-----------------|
B|-----------------|
G|-9-7---7---------|
D|-----9---9-7-9-7-|
A|-----------------|
E|-----------------|

E|------------------------------------------------------------------------|
B|----------12-13-12-----------15-17-15-13-12-----------------------------|
G|----12-14--------------12-14-----------------14b16-14-12-11-11h12p11----|
D|-12-----------------12-----------------------------------------------14-|
A|------------------------------------------------------------------------|
E|------------------------------------------------------------------------|

E|-------12-14-15p14-12-
B|-12-15----------------
G|----------------------
D|----------------------
A|----------------------
E|----------------------

E|---------------------------------------------------------|
B|----------12-13-12------------15-13-12----12-------------|
G|----12-14---------------12-14----------14--------12-14-12|
D|-14------------------14-----------------------14---------|
A|---------------------------------------------------------|
E|---------------------------------------------------------|

E|------------------------------------------|
B|------------------------------------------|
G|------------------------------------------|
D|-12h14-14-14-14/12--12-12-12/10--10-10----|
A|---------------------------------------10-|
E|------------------------------------------|

E|---------------------------------------------------------|
B|---------------------------------------------------------|
G|-------19-17-16h17p16---------------19-17-16-------------|
D|----------------------17---------------------19-17-------|
A|-17-17-------------------17---17-17----------------19-17-|
E|---------------------------------------------------------|

E|-------------------------------|
B|-------------------------------|
G|----16b17-16b17-16b17-16b17r16-|
D|-17----------------------------|
A|-------------------------------|
E|-------------------------------|

E|------------------------------------------------------|
B|------------------------------------------------------|
G|-------16-17-17b19------------16-17-17b19----17p16-16-|
D|-17-17-------------17---17-17-------------17----------|
A|------------------------------------------------------|
E|------------------------------------------------------|

E|-------------------------------|
B|-------------------------------|
G|-------9-----------------------|
D|-12b14---12-10-9----9-10-12----|
A|-----------------10---------10-|
E|-------------------------------|

E|-19-19-19-19-15-15-15-15----------17-17-17-17-14-14-14-14-|
B|-------------------------15-15-15-------------------------|
G|----------------------------------------------------------|
D|----------------------------------------------------------|
A|----------------------------------------------------------|
E|----------------------------------------------------------|

E|----------13-13-13-13----------10-10----10----------------|
B|-15-15-15-------------13-13-13-------13----13-------------|
G|----------------------------------------------12-12-12-12-|
D|----------------------------------------------------------|
A|----------------------------------------------------------|
E|----------------------------------------------------------|

 (2x)          (2x)          (2x)          (2x)
E|-19-19-19-19-|-15-15-15-15-|-17-17-17-17-|-------------|
B|-------------|-------------|-------------|-15-15-15-15-|
G|-------------|-------------|-------------|-------------|
D|-------------|-------------|-------------|-------------|
A|-------------|-------------|-------------|-------------|
E|-------------|-------------|-------------|-------------|

 (2x)          (2x)          (2x)
E|-13-13-13-13-|-------------|-10----10----10----10----|
B|-------------|-13-13-13-13-|----13----13----13----13-|
G|-------------|-------------|-------------------------|
D|-------------|-------------|-------------------------|
A|-------------|-------------|-------------------------|
E|-------------|-------------|-------------------------|
00:00 / 00:00
Outros vídeos desta música
Repetir
Outros vídeos desta música
Composição de Vinnie Moore
Colaboração e revisão:
  • Thyerrí Cruz
2.093 exibições
    • ½ Tom
    • A
    • Bb
    • B
    • C
    • Db
    • D
    • Eb
    • E
    • F
    • F#
    • G
    • Ab
  • Adicionar à lista

    0 comentários

    Ver todos os comentários

    Entre para oCifra Club PRO

    Tenha acesso a benefícios exclusivos no App e no Site

    • Chega de anúncios

    • Prioridade de compra em lançamentos

    • Mais recursos no app do Afinador

    • Atendimento Prioritário

    • Descontos nos produtos Cifra Club

    • Ajude a produzir mais conteúdo

    00:00 / 00:00

    Cifra Club Pro

    Aproveite o Cifra Club com benefícios exclusivos e sem anúncios
    Cifra Club Pro
    Aproveite o Cifra Club com benefícios exclusivos e sem anúncios
    OK