Cifra Club

Eu Sei

Vinny

Cifra: Principal (violão e guitarra)
tom: D
D

Intro .:

e|---------------|
B|---------------|
G|---------------|
D|---------0-----|
A|--0--0b2-------|
E|---------------|

Fazendo na ponte sai perfeito

(*)
e|-------------------|
B|-------------------|
G|-------------------|
D|-------------------|
A|-------------------|
E|---0---2---3-------|

(**) Solo do refrão

e|---10--10--10---9--9---5--5--|--10--10--10---9--9---7--7--|
B|---11--11--11--10--10--6--6--|--11--11--11--10--10--8--8--|
G|-----------------------------|----------------------------|
D|-----------------------------|----------------------------|
A|-----------------------------|----------------------------|
E|-----------------------------|----------------------------|

e|---10--10--10---9--9---7--7--|--5--5--5---7--7---9--9-----|
B|---11--11--11--10--10--8--8--|--6--6--6---8--8---10-10----|
G|-----------------------------|----------------------------|
D|-----------------------------|----------------------------|
A|-----------------------------|----------------------------|
E|-----------------------------|----------------------------|

D     D9   D     Am    A2   Am
Sexo verbal não faz meu estilo
Em      Em7        Em Em7              (*)
Palavras são erros, e os erros são seus
G          D/F#          A4/7       A7
Não quero lembrar que eu erro também
D     D9   D     Am    A2     Am
Um dia pretendo tentar descobrir
Em      Em7        Em Em7            (*)
Porque é mais forte quem sabe mentir
G          D/F#          A4/7       A7
Não quero lembrar que eu minto também 
Refrão (tocar solo)

  (**)
yeah! Eu sei...
D     D9   D     Am    A2   Am
Feche a porta do seu quarto
 Em      Em7        Em Em7              (*)
E vê se toca o telefone pode ser alguém
G          D/F#         
Com quem você quer falar
A4/7              A7                D D9 D Am A2 Am Em Em7 (*)
Por horas e horas e horas e horas...
  G        D/F#                 A4/7              A7
A noite acabou, talvez tenhamos que fugir sem você
     D     D9   D             Am    A2   Am
Mas não, não vá embora, quero honras e promessas
  Em      Em7        Em Em7              (*)
Lembranças e histórias
G      D/F#         A4/7           A7
Somos pássaro novo...Tão longe do ninho
  (**)
Yeah! Eu sei...
00:00 / 00:00
Outros vídeos desta música
Repetir
Outros vídeos desta música
Composição de Legião Urbana / Renato Russo
Colaboração e revisão:
  • Vinícius Conrado
2.404 exibições
    • ½ Tom
    • A
    • Bb
    • B
    • C
    • Db
    • D
    • Eb
    • E
    • F
    • F#
    • G
    • Ab
  • Adicionar à lista

    0 comentários

    Ver todos os comentários

    Conseguiu tocar?

    0 Tocaram 0 Ainda não

    Grave um vídeo tocando Eu Sei e nos envie!

    Entre para oCifra Club PRO

    Tenha acesso a benefícios exclusivos no App e no Site

    • Chega de anúncios

    • Prioridade de compra em lançamentos

    • Mais recursos no app do Afinador

    • Atendimento Prioritário

    • Descontos nos produtos Cifra Club

    • Ajude a produzir mais conteúdo

    00:00 / 00:00

    Cifra Club Pro

    Aproveite o Cifra Club com benefícios exclusivos e sem anúncios
    Cifra Club Pro
    Aproveite o Cifra Club com benefícios exclusivos e sem anúncios
    OK