Cifra Club

Atomic Nightmare

Violator

Cifra: Principal (violão e guitarra)
tom: E
Guitar 1

     W
E|-------------------------------|
B|-------------------------------|
G|-------------------------------|
D|-------------------------------|
A|--2----------------------------|
E|--0----------------------------|

  E   E  Q    E  E       Q -|
----------------------------|
----------------------------|
--9--10-------7--9----------|
--7---8-------5--7----------|
----------------------------|

  E  S S S S S S S S S S S S S S    E                     E  Q    E  E  Q
---------------------------------|-------------------------------------------|
---------------------------------|-------------------------------------------|
---------------------------------|-------------------------------------------|
---------------------------------|--9--------------------10------------------|
--2------------------------------|--7---------------------8-------5--4--3----|
--0--0-0-0-0-0-0-0-0-0-0-0-0-0-0-|--------------------------------3--2--1----|

  E  S S S S S S S S S S S S S S    E   E  S S E  E  E  S S S S
---------------------------------|------------------------------|
---------------------------------|------------------------------|
---------------------------------|------------------------------|
---------------------------------|--9--10---------7--9----------|
--2------------------------------|--7---8---------5--7----------|
--0--0-0-0-0-0-0-0-0-0-0-0-0-0-0-|---------0-0-0--------0-0-0-0-|

  S S E  E  S S E  E  S S E     E   E  E  E  E  E  Q
-----------------------------|--------------------------|
-----------------------------|--------------------------|
-----------------------------|--------------------------|
-----------------------------|--9--10-------------------|
--2--------------------------|--7---8--------5--4--3----|
--0-0-0--0--0-0-0--0--0-0-0--|---------0--0--3--2--1----|

  E  S S S S S S S S S S S S S S    E   E  S S E  E  E  S S S S
---------------------------------|------------------------------|
---------------------------------|------------------------------|
---------------------------------|------------------------------|
---------------------------------|--9--10---------7--9----------|
--2------------------------------|--7---8---------5--7----------|
--0--0-0-0-0-0-0-0-0-0-0-0-0-0-0-|---------0-0-0--------0-0-0-0-|


                                                UAAH!
  E  E  E  E  E  E  E  E      E  E  E  E  E  E  Q
--------------------------|---------------------------|
--------------------------|---------------------------|
--------------------------|---------------------------|
--------------------------|--10-----9-----8-----------|
--2-----2-----2-----2-----|---8-----7-----6-----------|
--0-----0-----0-----0-----|---------------------------|

  E  S S S S S S S S S S S S S S    E   E  S S E  E  E  S S S S
---------------------------------|------------------------------|
---------------------------------|------------------------------|
---------------------------------|------------------------------|
---------------------------------|--9--10---------7--9----------|
--2------------------------------|--7---8---------5--7----------|
--0--0-0-0-0-0-0-0-0-0-0-0-0-0-0-|---------0-0-0--------0-0-0-0-|

  S S E  E  S S E  E  S S E     E   E  E  E  E  E  Q
-----------------------------|--------------------------|
-----------------------------|--------------------------|
-----------------------------|--------------------------|
-----------------------------|--9--10-------------------|
--2--------------------------|--7---8--------5--4--3----|
--0-0-0--0--0-0-0--0--0-0-0--|---------0--0--3--2--1----|

  E  S S S S S S S S S S S S S S    E   E  S S E  E  E  S S S S
---------------------------------|------------------------------|
---------------------------------|------------------------------|
---------------------------------|------------------------------|
---------------------------------|--9--10---------7--9----------|
--2------------------------------|--7---8---------5--7----------|
--0--0-0-0-0-0-0-0-0-0-0-0-0-0-0-|---------0-0-0--------0-0-0-0-|

  S S E  E  S S E  E  S S E     E   E  E  E  E  E  Q
-----------------------------|--------------------------|
-----------------------------|--------------------------|
-----------------------------|--------------------------|
-----------------------------|--9--10-------------------|
--2--------------------------|--7---8--------5--4--3----|
--0-0-0--0--0-0-0--0--0-0-0--|---------0--0--3--2--1----|

   E  S S S S S S S S S S S S S S    E  E  E  E  E  E  E  E
---------------------------------|--------------------------|
---------------------------------|--------------------------|
---------------------------------|--------------------------|
--2------------------------------|--5--4--2--5--4--2--5--4--|
--0--0-0-0-0-0-0-0-0-0-0-0-0-0-0-|--3--2--0--3--2--0--3--2--|
---------------------------------|--------------------------|

                                    |----3----|
  E  S S S S S S S S S S S S S S    Q    Q    Q    Q    Q
---------------------------------|---------------------------|
---------------------------------|---------------------------|
---------------------------------|---------------------------|
--2------------------------------|--5----4----2----7----5----|
--0--0-0-0-0-0-0-0-0-0-0-0-0-0-0-|--3----2----0----5----3----|
---------------------------------|---------------------------|

   E  S S S S S S S S S S S S S S    E  E  E  E  E  E  E  E
---------------------------------|--------------------------|
---------------------------------|--------------------------|
---------------------------------|--------------------------|
--2------------------------------|--5--4--2--5--4--2--5--4--|
--0--0-0-0-0-0-0-0-0-0-0-0-0-0-0-|--3--2--0--3--2--0--3--2--|
---------------------------------|--------------------------|

                                    |----3----|    |----3----|
  E  S S S S S S S S S S S S S S    Q    Q    Q    Q    Q    Q
---------------------------------|--------------------------------|
---------------------------------|--------------------------------|
---------------------------------|--------------------------------|
--2------------------------------|--5----4----2----7----5----4----|
--0--0-0-0-0-0-0-0-0-0-0-0-0-0-0-|--3----2----0----5----3----2----|
---------------------------------|--------------------------------|

  S S S S S S S S S S S S S S S S    E  S S S S S S S S S S S S S S
----------------------------------|---------------------------------|
----------------------------------|---------------------------------|
----------------------------------|---------------------------------|
--7-8-7-8-7-8-7-8-7-8-7-8-7-8-7-8-|---------------------------------|
----------------------------------|--2------------------------------|
----------------------------------|--0--0-0-0-0-0-0-0-0-0-0-0-0-0-0-|

   E   E  S S E  E  E  S S S S    S S E  E  S S E  E  S S E
------------------------------|-----------------------------|
------------------------------|-----------------------------|
------------------------------|-----------------------------|
--9--10---------7--9----------|-----------------------------|
--7---8---------5--7----------|--2--------------------------|
---------0-0-0--------0-0-0-0-|--0-0-0--0--0-0-0--0--0-0-0--|

  E   E  E  E  E  E  Q       E  S S S S S S S S S S S S S S
--------------------------|---------------------------------|
--------------------------|---------------------------------|
--------------------------|---------------------------------|
--9--10-------------------|---------------------------------|
--7---8--------5--4--3----|--2------------------------------|
---------0--0--3--2--1----|--0--0-0-0-0-0-0-0-0-0-0-0-0-0-0-|

   E   E  S S E  E  E  S S S S    S S E  E  S S E  E  S S E
------------------------------|-----------------------------|
------------------------------|-----------------------------|
------------------------------|-----------------------------|
--9--10---------7--9----------|-----------------------------|
--7---8---------5--7----------|--2--------------------------|
---------0-0-0--------0-0-0-0-|--0-0-0--0--0-0-0--0--0-0-0--|

  E   E  E  E  E  E  Q       E  S S S S S S S S S S S S S S
--------------------------|---------------------------------|
--------------------------|---------------------------------|
--------------------------|---------------------------------|
--9--10-------------------|--7------------------------------|
--7---8--------5--4--3----|--5--5-5-5-5-5-5-5-5-5-5-5-5-5-5-|
---------0--0--3--2--1----|---------------------------------|

  E  E  S S E  H           E  S S S S S S S S S S S S S S
------------------------|---------------------------------|
------------------------|---------------------------------|
---------------8--------|---------------------------------|
--8--7---------6--------|--7------------------------------|
--6--5--5-5-5-----------|--5--5-5-5-5-5-5-5-5-5-5-5-5-5-5-|
------------------------|---------------------------------|

                |----3----|
  E  E  S S E   Q    Q    Q       E  S S S S S S S S S S S S S S
-------------------------------|---------------------------------|
-------------------------------|---------------------------------|
-------------------------------|---------------------------------|
--8--7-------------------------|--7------------------------------|
--6--5--5-5-5--10----9----7----|--5--5-5-5-5-5-5-5-5-5-5-5-5-5-5-|
----------------8----7----5----|---------------------------------|

  E  E  S S E  H           E  S S S S S S S S S S S S S S
------------------------|---------------------------------|
------------------------|---------------------------------|
---------------8--------|---------------------------------|
--8--7---------6--------|--7------------------------------|
--6--5--5-5-5-----------|--5--5-5-5-5-5-5-5-5-5-5-5-5-5-5-|
------------------------|---------------------------------|

                |----3----|
  E  E  S S E   Q    Q    Q       E  S S S S S S S S S S S S S S
-------------------------------|---------------------------------|
-------------------------------|---------------------------------|
-------------------------------|---------------------------------|
--8--7-------------------------|--2------------------------------|
--6--5--5-5-5--10----9----7----|--0--0-0-0-0-0-0-0-0-0-0-0-0-0-0-|
----------------8----7----5----|---------------------------------|

  E  E  E  E  E  E  E  E     E  S S S S S S S S S S S S S S
--------------------------|---------------------------------|
--------------------------|---------------------------------|
--------------------------|---------------------------------|
--5--4--2--5--4--2--5--4--|--2------------------------------|
--3--2--0--3--2--0--3--2--|--0--0-0-0-0-0-0-0-0-0-0-0-0-0-0-|
--------------------------|---------------------------------|

  |----3----|
  Q    Q    Q    Q    Q       E  S S S S S S S S S S S S S S
---------------------------|---------------------------------|
---------------------------|---------------------------------|
---------------------------|---------------------------------|
--5----4----2----7----5----|--2------------------------------|
--3----2----0----5----3----|--0--0-0-0-0-0-0-0-0-0-0-0-0-0-0-|
---------------------------|---------------------------------|

  E  E  E  E  E  E  E  E     E  S S S S S S S S S S S S S S
--------------------------|---------------------------------|
--------------------------|---------------------------------|
--------------------------|---------------------------------|
--5--4--2--5--4--2--5--4--|--2------------------------------|
--3--2--0--3--2--0--3--2--|--0--0-0-0-0-0-0-0-0-0-0-0-0-0-0-|
--------------------------|---------------------------------|

  |----3----|
  Q    Q    Q    Q    Q       E  S S S S S S S S S S S S S S
---------------------------|---------------------------------|
---------------------------|---------------------------------|
---------------------------|---------------------------------|
--5----4----2----7----5----|---------------------------------|
--3----2----0----5----3----|--2------------------------------|
---------------------------|--0--0-0-0-0-0-0-0-0-0-0-0-0-0-0-|

   E   E  S S E  E  E  S S S S    S S E  E  S S E  E  S S E
------------------------------|-----------------------------|
------------------------------|-----------------------------|
------------------------------|-----------------------------|
--9--10---------7--9----------|-----------------------------|
--7---8---------5--7----------|--2--------------------------|
---------0-0-0--------0-0-0-0-|--0-0-0--0--0-0-0--0--0-0-0--|

  E   E  E  E  E  E  Q       E  S S S S S S S S S S S S S S
--------------------------|---------------------------------|
--------------------------|---------------------------------|
--------------------------|---------------------------------|
--9--10-------------------|---------------------------------|
--7---8--------5--4--3----|--2------------------------------|
---------0--0--3--2--1----|--0--0-0-0-0-0-0-0-0-0-0-0-0-0-0-|

   E   E  S S E  E  E  S S S S    S S E  E  S S E  E  S S E
------------------------------|-----------------------------|
------------------------------|-----------------------------|
------------------------------|-----------------------------|
--9--10---------7--9----------|-----------------------------|
--7---8---------5--7----------|--2--------------------------|
---------0-0-0--------0-0-0-0-|--0-0-0--0--0-0-0--0--0-0-0--|

  E   E  E  E  E  E  Q       E  S S S S S S S S S S S S S S
--------------------------|---------------------------------|
--------------------------|---------------------------------|
--------------------------|---------------------------------|
--9--10-------------------|--7------------------------------|
--7---8--------5--4--3----|--5--5-5-5-5-5-5-5-5-5-5-5-5-5-5-|
---------0--0--3--2--1----|---------------------------------|

  E  E  S S E  H           E  S S S S S S S S S S S S S S
------------------------|---------------------------------|
------------------------|---------------------------------|
---------------8--------|---------------------------------|
--8--7---------6--------|--7------------------------------|
--6--5--5-5-5-----------|--5--5-5-5-5-5-5-5-5-5-5-5-5-5-5-|
------------------------|---------------------------------|

                |----3----|
  E  E  S S E   Q    Q    Q       E  S S S S S S S S S S S S S S
-------------------------------|---------------------------------|
-------------------------------|---------------------------------|
-------------------------------|---------------------------------|
--8--7-------------------------|--7------------------------------|
--6--5--5-5-5--10----9----7----|--5--5-5-5-5-5-5-5-5-5-5-5-5-5-5-|
----------------8----7----5----|---------------------------------|

  E  E  S S E  H           E  S S S S S S S S S S S S S S
------------------------|---------------------------------|
------------------------|---------------------------------|
---------------8--------|---------------------------------|
--8--7---------6--------|--7------------------------------|
--6--5--5-5-5-----------|--5--5-5-5-5-5-5-5-5-5-5-5-5-5-5-|
------------------------|---------------------------------|

                |----3----|
  E  E  S S E   Q    Q    Q       E  S S S S S S S S S S S S S S
-------------------------------|---------------------------------|
-------------------------------|---------------------------------|
-------------------------------|---------------------------------|
--8--7-------------------------|--2------------------------------|
--6--5--5-5-5--10----9----7----|--0--0-0-0-0-0-0-0-0-0-0-0-0-0-0-|
----------------8----7----5----|---------------------------------|

  E  E  E  E  E  E  E  E     E  S S S S S S S S S S S S S S
--------------------------|---------------------------------|
--------------------------|---------------------------------|
--------------------------|---------------------------------|
--5--4--2--5--4--2--5--4--|--2------------------------------|
--3--2--0--3--2--0--3--2--|--0--0-0-0-0-0-0-0-0-0-0-0-0-0-0-|
--------------------------|---------------------------------|

  |----3----|
  Q    Q    Q    Q    Q       E  S S S S S S S S S S S S S S
---------------------------|---------------------------------|
---------------------------|---------------------------------|
---------------------------|---------------------------------|
--5----4----2----7----5----|--2------------------------------|
--3----2----0----5----3----|--0--0-0-0-0-0-0-0-0-0-0-0-0-0-0-|
---------------------------|---------------------------------|

  E  E  E  E  E  E  E  E     E  S S S S S S S S S S S S S S
--------------------------|---------------------------------|
--------------------------|---------------------------------|
--------------------------|---------------------------------|
--5--4--2--5--4--2--5--4--|--2------------------------------|
--3--2--0--3--2--0--3--2--|--0--0-0-0-0-0-0-0-0-0-0-0-0-0-0-|
--------------------------|---------------------------------|

  E  E  Q    E  E  Q       S S S S S S S S S S S S S S S S
------------------------|----------------------------------|
------------------------|----------------------------------|
------------------------|----------------------------------|
--5--4--2----7--5--4----|--7-8-7-8-7-8-7-8-7-8-7-8-7-8-7-8-|
--3--2--0----5--3--2----|----------------------------------|
------------------------|----------------------------------|

   S S E  S S E  S S E  S S E     E  E  E  E  E  E  E  E
------------------------------|--------------------------|
------------------------------|--------------------------|
------------------------------|--------------------------|
------------------------------|--------------------------|
------------------------------|--------------3--2--------|
--0-0-0--0-0-0--0-0-0--0-0-0--|--0--1--3--5--------3--1--|

  S S E  S S E  S S E  S S E     E  E  E  E  E  E  Q
------------------------------|-------------------------|
------------------------------|-------------------------|
------------------------------|-------------------------|
------------------------------|-------------------------|
------------------------------|--2--3--0--2-------------|
--0-0-0--0-0-0--0-0-0--0-0-0--|--------------3--5--1----|

   S S E  S S E  S S E  S S E     E  E  E  E  E  E  E  E
------------------------------|--------------------------|
------------------------------|--------------------------|
------------------------------|--------------------------|
------------------------------|--------------------------|
------------------------------|--------------3--2--------|
--0-0-0--0-0-0--0-0-0--0-0-0--|--0--1--3--5--------3--1--|

  Q    E  E  Q    Q       S S E  S S E  E  Q.
-----------------------|--------------------------|
-----------------------|--------------------------|
-----------------------|--------------------------|
-----------------------|--------------------------|
--2----------3----2----|----------------6--6------|
--0----0--0--1----0----|--0-0-0--0-0-0--4--4------|

   S S E  S S E  S S E  S S E     E  E  E  E  E  E  E  E
------------------------------|--------------------------|
------------------------------|--------------------------|
------------------------------|--------------------------|
------------------------------|--------------------------|
------------------------------|--------------3--2--------|
--0-0-0--0-0-0--0-0-0--0-0-0--|--0--1--3--5--------3--1--|

  S S E  S S E  S S E  S S E     E  E  E  E  E  E  Q
------------------------------|-------------------------|
------------------------------|-------------------------|
------------------------------|-------------------------|
------------------------------|-------------------------|
------------------------------|--2--3--0--2-------------|
--0-0-0--0-0-0--0-0-0--0-0-0--|--------------3--5--1----|

   S S E  S S E  S S E  S S E     E  E  E  E  E  E  E  E
------------------------------|--------------------------|
------------------------------|--------------------------|
------------------------------|--------------------------|
------------------------------|--------------------------|
------------------------------|--------------3--2--------|
--0-0-0--0-0-0--0-0-0--0-0-0--|--0--1--3--5--------3--1--|

  E  E  Q    E  E  E  E     Q    E  E  E  Q.
-------------------------|-----------------------|
-------------------------|-----------------------|
-------------------------|-----------------------|
-------------------------|-----------------------|
--2--2-------3-----2-----|-------2--2--6--6------|
--0--0-------1-----0-----|-------0--0--4--4------|

   S S E  S S E  S S E  S S E     E  E  E  E  E  E  E  E
------------------------------|--------------------------|
------------------------------|--------------------------|
------------------------------|--------------------------|
------------------------------|--------------------------|
------------------------------|--------------3--2--------|
--0-0-0--0-0-0--0-0-0--0-0-0--|--0--1--3--5--------3--1--|

  S S E  S S E  S S E  S S E     E  E  E  E  E  E  Q
------------------------------|-------------------------|
------------------------------|-------------------------|
------------------------------|-------------------------|
------------------------------|-------------------------|
------------------------------|--2--3--0--2-------------|
--0-0-0--0-0-0--0-0-0--0-0-0--|--------------3--5--1----|

   S S E  S S E  S S E  S S E     E  E  E  E  E  E  E  E
------------------------------|--------------------------|
------------------------------|--------------------------|
------------------------------|--------------------------|
------------------------------|--------------------------|
------------------------------|--------------3--2--------|
--0-0-0--0-0-0--0-0-0--0-0-0--|--0--1--3--5--------3--1--|

  Q    E  E  Q    Q       S S E  S S E  E  Q.
-----------------------|--------------------------|
-----------------------|--------------------------|
-----------------------|--------------------------|
-----------------------|--------------------------|
--2----------3----2----|----------------6--6------|
--0----0--0--1----0----|--0-0-0--0-0-0--4--4------|

   S S E  S S E  S S E  S S E     E  E  E  E  E  E  E  E
------------------------------|--------------------------|
------------------------------|--------------------------|
------------------------------|--------------------------|
------------------------------|--------------------------|
------------------------------|--------------3--2--------|
--0-0-0--0-0-0--0-0-0--0-0-0--|--0--1--3--5--------3--1--|

  S S E  S S E  S S E  S S E     E  E  E  E  E  E  Q
------------------------------|-------------------------|
------------------------------|-------------------------|
------------------------------|-------------------------|
------------------------------|-------------------------|
------------------------------|--2--3--0--2-------------|
--0-0-0--0-0-0--0-0-0--0-0-0--|--------------3--5--1----|

   S S E  S S E  S S E  S S E     E  E  E  E  E  E  E  E
------------------------------|--------------------------|
------------------------------|--------------------------|
------------------------------|--------------------------|
------------------------------|--------------------------|
------------------------------|--------------3--2--------|
--0-0-0--0-0-0--0-0-0--0-0-0--|--0--1--3--5--------3--1--|

  E  E  Q    E  E  E  E     Q    E  E  E  Q.        E  S S S S S S Q    Q
-------------------------|-----------------------|---------------------------|
-------------------------|-----------------------|---------------------------|
-------------------------|-----------------------|---------------------------|
-------------------------|-----------------------|--4--------------4----5----|
--2--2-------3-----2-----|-------2--2--6--6------|--2--2-2-2-2-2-2-2----3----|
--0--0-------1-----0-----|-------0--0--4--4------|---------------------------|

  E  S S S S S S E  E  Q       E  S S S S S S Q    Q
----------------------------|---------------------------|
----------------------------|---------------------------|
----------------------------|---------------------------|
--4-------------------------|--4--------------4----5----|
--2--2-2-2-2-2-2-5--4--3----|--2--2-2-2-2-2-2-2----3----|
-----------------3--2--1----|---------------------------|

  E  S S S S S S E  E  Q       E  S S S S S S Q    Q
----------------------------|---------------------------|
----------------------------|---------------------------|
----------------------------|---------------------------|
--4--------------------5----|--4--------------4----5----|
--2--2-2-2-2-2-2-5--4--3----|--2--2-2-2-2-2-2-2----3----|
-----------------3--2-------|---------------------------|

  E  S S S S S S E  E  Q       E  S S S S S S Q    Q
----------------------------|---------------------------|
----------------------------|---------------------------|
----------------------------|---------------------------|
--4-------------------------|--4--------------4----5----|
--2--2-2-2-2-2-2-5--4--3----|--2--2-2-2-2-2-2-2----3----|
-----------------3--2--1----|---------------------------|

  E  S S S S S S E  E  Q       E  S S S S S S Q    Q
----------------------------|---------------------------|
----------------------------|---------------------------|
----------------------------|---------------------------|
--4--------------------5----|--4--------------4----5----|
--2--2-2-2-2-2-2-5--4--3----|--2--2-2-2-2-2-2-2----3----|
-----------------3--2-------|---------------------------|

  E  S S S S S S E  E  Q       W                   W
----------------------------|-------------------|-------------------|
----------------------------|-------------------|-------------------|
----------------------------|-------------------|-------------------|
--4-------------------------|--4----------------|--5----------------|
--2--2-2-2-2-2-2-5--4--3----|--2----------------|--3----------------|
-----------------3--2--1----|-------------------|-------------------|

  E  S S S S S S S S S S S S S S    E  S S S S S S S S S S S S S S
---------------------------------|---------------------------------|
---------------------------------|---------------------------------|
---------------------------------|---------------------------------|
---------------------------------|---------------------------------|
--4------------------------------|--5------------------------------|
--2--2-2-2-2-2-2-2-2-2-2-2-2-2-2-|--3--3-3-3-3-3-3-3-3-3-3-3-3-3-3-|

  E  S S S S S S S S S S S S S S    E  S S S S S S S S S S S S S S
---------------------------------|---------------------------------|
---------------------------------|---------------------------------|
---------------------------------|---------------------------------|
--4------------------------------|--5------------------------------|
--2--2-2-2-2-2-2-2-2-2-2-2-2-2-2-|--3--3-3-3-3-3-3-3-3-3-3-3-3-3-3-|
---------------------------------|---------------------------------|


                                          UAAAH!
  W                   W                   E      S S S S S S Q    Q
-------------------|-------------------|-------------------------------|
-------------------|-------------------|-------------------------------|
-------------------|-------------------|-------------------------------|
-------------------|-------------------|--4------------------4----5----|
--4----------------|--3----------------|--2------2-2-2-2-2-2-2----3----|
--2----------------|--1----------------|-------------------------------|

  E  S S S S S S E  E  Q       E  S S S S S S Q    Q
----------------------------|---------------------------|
----------------------------|---------------------------|
----------------------------|---------------------------|
--4-------------------------|--4--------------4----5----|
--2--2-2-2-2-2-2-5--4--3----|--2--2-2-2-2-2-2-2----3----|
-----------------3--2--1----|---------------------------|

  E  S S S S S S E  E  Q       E  S S S S S S Q    Q
----------------------------|---------------------------|
----------------------------|---------------------------|
----------------------------|---------------------------|
--4--------------------5----|--4--------------4----5----|
--2--2-2-2-2-2-2-5--4--3----|--2--2-2-2-2-2-2-2----3----|
-----------------3--2-------|---------------------------|

  E  S S S S S S E  E  Q       E  S S S S S S Q    Q
----------------------------|---------------------------|
----------------------------|---------------------------|
----------------------------|---------------------------|
--4-------------------------|--4--------------4----5----|
--2--2-2-2-2-2-2-5--4--3----|--2--2-2-2-2-2-2-2----3----|
-----------------3--2--1----|---------------------------|

  E  S S S S S S E  E  Q       W                   W
----------------------------|-------------------|-------------------|
----------------------------|-------------------|-------------------|
----------------------------|-------------------|-------------------|
--4--------------------5----|--4----------------|--5----------------|
--2--2-2-2-2-2-2-5--4--3----|--2----------------|--3----------------|
-----------------3--2-------|-------------------|-------------------|

  E  S S S S S S S S S S S S S S    E  S S S S S S S S S S S S S S
---------------------------------|---------------------------------|
---------------------------------|---------------------------------|
---------------------------------|---------------------------------|
---------------------------------|---------------------------------|
--4------------------------------|--5------------------------------|
--2--2-2-2-2-2-2-2-2-2-2-2-2-2-2-|--3--3-3-3-3-3-3-3-3-3-3-3-3-3-3-|

  Q    S S E  E  S S E  E     Q    S S E  E  S S E  E     W
---------------------------|---------------------------|-------------------|
---------------------------|---------------------------|-------------------|
---------------------------|---------------------------|-------------------|
--4------------------------|--5------------------------|-------------------|
--2----2-2-2--2--2-2-2--2--|--3----3-3-3--3--3-3-3--3--|--4----------------|
---------------------------|---------------------------|--2----------------|

  H        E  E  E  E     W                   E   E  Q    E  E  Q
-----------------------|-------------------|-------------------------|
-----------------------|-------------------|-------------------------|
-----------------------|-------------------|-------------------------|
-----------------------|-------------------|--9--10-------7--9-------|
--3--------------------|--2----------------|--7---8-------5--7-------|
--1--------1--1--1--1--|--0----------------|-------------------------|

  E  S S S S S S S S S S S S S S    E   E  Q    E  E  Q
---------------------------------|-------------------------|
---------------------------------|-------------------------|
---------------------------------|-------------------------|
---------------------------------|--9--10------------------|
--2------------------------------|--7---8-------5--4--3----|
--0--0-0-0-0-0-0-0-0-0-0-0-0-0-0-|--------------3--2--1----|

  E  S S S S S S S S S S S S S S    E   E  S S E  E  E  S S S S
---------------------------------|------------------------------|
---------------------------------|------------------------------|
---------------------------------|------------------------------|
---------------------------------|--9--10---------7--9----------|
--2------------------------------|--7---8---------5--7----------|
--0--0-0-0-0-0-0-0-0-0-0-0-0-0-0-|---------0-0-0--------0-0-0-0-|

  S S E  E  S S E  E  S S E     Q    Q    H
-----------------------------|---------------------|
-----------------------------|---------------------|
-----------------------------|---------------------|
-----------------------------|---------------------|
--2--------------------------|--5----4----3--------|
--0-0-0--0--0-0-0--0--0-0-0--|--3----2----1--------|

  E  S S S S S S S S S S S S S S    E   E  S S E  E  E  S S S S
---------------------------------|------------------------------|
---------------------------------|------------------------------|
---------------------------------|------------------------------|
---------------------------------|--9--10---------7--9----------|
--2------------------------------|--7---8---------5--7----------|
--0--0-0-0-0-0-0-0-0-0-0-0-0-0-0-|---------0-0-0--------0-0-0-0-|

  S S E  E  S S E  E  S S E     E   E  E  E  E  E  Q
-----------------------------|--------------------------|
-----------------------------|--------------------------|
-----------------------------|--------------------------|
-----------------------------|--9--10-------------------|
--2--------------------------|--7---8--------5--4--3----|
--0-0-0--0--0-0-0--0--0-0-0--|---------0--0--3--2--1----|

  E  S S S S S S S S S S S S S S    E   E  S S E  E  E  S S S S
---------------------------------|------------------------------|
---------------------------------|------------------------------|
---------------------------------|------------------------------|
---------------------------------|--9--10---------7--9----------|
--2------------------------------|--7---8---------5--7----------|
--0--0-0-0-0-0-0-0-0-0-0-0-0-0-0-|---------0-0-0--------0-0-0-0-|

  S S E  E  S S E  E  S S E     E   E  E  E  E  E  Q
-----------------------------|--------------------------|
-----------------------------|--------------------------|
-----------------------------|--------------------------|
-----------------------------|--9--10-------------------|
--2--------------------------|--7---8--------5--4--3----|
--0-0-0--0--0-0-0--0--0-0-0--|---------0--0--3--2--1----|

  E  S S S S S S S S S S S S S S    E  E  S S E  H
---------------------------------|------------------------|
---------------------------------|------------------------|
---------------------------------|---------------8--------|
--7------------------------------|--8--7---------6--------|
--5--5-5-5-5-5-5-5-5-5-5-5-5-5-5-|--6--5--5-5-5-----------|
---------------------------------|------------------------|

                                                  |----3----|
  E  S S S S S S S S S S S S S S    E  E  S S E   Q    Q    Q
---------------------------------|-------------------------------|
---------------------------------|-------------------------------|
---------------------------------|-------------------------------|
--7------------------------------|--8--7-------------------------|
--5--5-5-5-5-5-5-5-5-5-5-5-5-5-5-|--6--5--5-5-5--10----9----7----|
---------------------------------|----------------8----7----5----|

  E  S S S S S S S S S S S S S S    E  E  S S E  H
---------------------------------|------------------------|
---------------------------------|------------------------|
---------------------------------|---------------8--------|
--7------------------------------|--8--7---------6--------|
--5--5-5-5-5-5-5-5-5-5-5-5-5-5-5-|--6--5--5-5-5-----------|
---------------------------------|------------------------|

                                                  |----3----|
  E  S S S S S S S S S S S S S S    E  E  S S E   Q    Q    Q
---------------------------------|-------------------------------|
---------------------------------|-------------------------------|
---------------------------------|-------------------------------|
--7------------------------------|--8--7-------------------------|
--5--5-5-5-5-5-5-5-5-5-5-5-5-5-5-|--6--5--5-5-5--10----9----7----|
---------------------------------|----------------8----7----5----|

   E  S S S S S S S S S S S S S S    E  E  E  E  E  E  E  E
---------------------------------|--------------------------|
---------------------------------|--------------------------|
---------------------------------|--------------------------|
--2------------------------------|--5--4--2--5--4--2--5--4--|
--0--0-0-0-0-0-0-0-0-0-0-0-0-0-0-|--3--2--0--3--2--0--3--2--|
---------------------------------|--------------------------|

                                    |----3----|
  E  S S S S S S S S S S S S S S    Q    Q    Q    Q    Q
---------------------------------|---------------------------|
---------------------------------|---------------------------|
---------------------------------|---------------------------|
--2------------------------------|--5----4----2----7----5----|
--0--0-0-0-0-0-0-0-0-0-0-0-0-0-0-|--3----2----0----5----3----|
---------------------------------|---------------------------|

   E  S S S S S S S S S S S S S S    E  E  E  E  E  E  E  E
---------------------------------|--------------------------|
---------------------------------|--------------------------|
---------------------------------|--------------------------|
--2------------------------------|--5--4--2--5--4--2--5--4--|
--0--0-0-0-0-0-0-0-0-0-0-0-0-0-0-|--3--2--0--3--2--0--3--2--|
---------------------------------|--------------------------|

                                    |----3----|    |----3----|
  E  S S S S S S S S S S S S S S    Q    Q    Q    Q    Q    Q
---------------------------------|--------------------------------|
---------------------------------|--------------------------------|
---------------------------------|--------------------------------|
--2------------------------------|--5----4----2----7----5----4----|
--0--0-0-0-0-0-0-0-0-0-0-0-0-0-0-|--3----2----0----5----3----2----|
---------------------------------|--------------------------------|

  W
--------------------||
--------------------||
--------------------||
--7\----------------||
--5\----------------||
--------------------||


Solo:

            \0         \1/           \1/
            H          H             W
-------|------------------------|---------------------|
-------|------------------------|---------------------|
-------|--<>5--------<>4--------|--<>2----------------|
-------|------------------------|---------------------|
-------|------------------------|---------------------|
-------|------------------------|---------------------|

   T             T             T             T
   |----3----|   |----3----|   |----3----|   |----3----|
    E    E    E   E    E    E   E    E    E   E    E    E
--20p--19p--17--20p--19p--17--20p--19p--17--20p--19p--17--|
----------------------------------------------------------|
----------------------------------------------------------|
----------------------------------------------------------|
----------------------------------------------------------|
----------------------------------------------------------|

   T             T             T             T
   |----3----|   |----3----|   |----3----|   |----3----|
    E    E    E   E    E    E   E    E    E   E    E    E
--20p--19p--17--20p--19p--17--20p--19p--17--20p--19p--17--|
----------------------------------------------------------|
----------------------------------------------------------|
----------------------------------------------------------|
----------------------------------------------------------|
----------------------------------------------------------|

   |-----3-----|     |-----3-----|        |-----3-----|     |-----3-----|
   Q     Q     Q     Q     Q     Q        Q     Q     Q     Q     Q     Q
--20----19----20----19----17----19----|--17----15----17----15----14----15----|
--------------------------------------|--------------------------------------|
--------------------------------------|--------------------------------------|
--------------------------------------|--------------------------------------|
--------------------------------------|--------------------------------------|
--------------------------------------|--------------------------------------|

   |-----3-----|
   Q     Q     Q      Q     S  S  S  S
--14----12----14b-----L----14-14-14-14-|
---------------------------------------|
---------------------------------------|
---------------------------------------|
---------------------------------------|
---------------------------------------|

   S  S  S  S  S  S  S  S  S  S  S  S  S  S  S  S
--12-12-12-12-14-14-14-14-15-15-15-15-14-14-14-14-|
--------------------------------------------------|
--------------------------------------------------|
--------------------------------------------------|
--------------------------------------------------|
--------------------------------------------------|

   S  S  S  S  S  S  S  S  S  S  S  S  S  S  S  S     W
--15-15-15-15-17-17-17-17-15-15-15-15-17-17-17-17-|--19b----------------|
--------------------------------------------------|---------------------|
--------------------------------------------------|---------------------|
--------------------------------------------------|---------------------|
--------------------------------------------------|---------------------|
--------------------------------------------------|---------------------|

   H          Q     Q        H.             S  S  S  S
-------------------------|-----------------15-15-15-15-|
-------------------------|--15b------------------------|
--14b--------14----12----|-----------------------------|
-------------------------|-----------------------------|
-------------------------|-----------------------------|
-------------------------|-----------------------------|

   S  S  S  S  S  S  S  S  Q      E   E      W
--15-14-12-------------------------------|---------------------|
-----------15-13-12----------------------|---------------------|
--------------------14-12-14b----14--12--|---------------------|
-----------------------------------------|--14~----------------|
-----------------------------------------|---------------------|
-----------------------------------------|---------------------|

   S  S  S  S  S  S  S  S  S  S  S  S  S  S  S  S
--------------------------------------------------|
--------------------------------------------------|
--16-12----12-16-12----12-16-12----12-16-12----12-|
--------14----------14----------14----------14----|
--------------------------------------------------|
--------------------------------------------------|

   S  S  S  S  S  S  S  S  S  S  S  S  S  S  S  S
--------------------------------------------------|
--------------------------------------------------|
--18-14----14-18-14----14-18-14----14-18-14----14-|
--------16----------16----------16----------16----|
--------------------------------------------------|
--------------------------------------------------|

   S  S  S  S  S  S  S  S  Q      E   E      W
--15-14-12-------------------------------|---------------------|
-----------15-13-12----------------------|---------------------|
--------------------14-12-14b----14--12--|---------------------|
-----------------------------------------|--14~----------------|
-----------------------------------------|---------------------|
-----------------------------------------|---------------------|

Duration Legend
---------------
W - whole
H - half
Q - quarter
E|- 8th
S - 16th
T - 32nd
X - 64th
. - note dotted
|-n-|  - n-tuplets

Tablature Legend
----------------
L - tied note
x - dead note
G|- grace note
(n) - ghost note
> - accentuded note
NH - natural harmonic
AH - artificial harmonic
TH - tapped harmonic
SH - semi harmonic
PH - pitch harmonic
h - hammer on
p - pull off
B|- bend
br - bendRelease
pb - preBend
pbr - preBendRelease
brb - bendReleaseBend
\n/ - tremolo bar dip
\n - tremolo bar dive
-/n - tremolo bar Release up
/n\ - tremolo bar inverted dip
/n - tremolo bar return
-\n - tremolo bar Release down
S - shift slide
s - legato slide
/ -  slide into from below or out of upwards
\ -  slide into from above or out of downwards
~ - vibrato
W - wide vibrato
tr - trill
TP - tremolo picking
T - tapping
S - slap
P - pop
< - fade in
^ - brush up
v - brush down
00:00 / 00:00
Outros vídeos desta música
Repetir
Outros vídeos desta música
Compositor não encontrado.
Colaboração e revisão:
  • Gabriella
669 exibições
    • ½ Tom
    • A
    • Bb
    • B
    • C
    • Db
    • D
    • Eb
    • E
    • F
    • F#
    • G
    • Ab
  • Adicionar à lista

    0 comentários

    Ver todos os comentários

    Entre para oCifra Club PRO

    Tenha acesso a benefícios exclusivos no App e no Site

    • Chega de anúncios

    • Prioridade de compra em lançamentos

    • Mais recursos no app do Afinador

    • Atendimento Prioritário

    • Descontos nos produtos Cifra Club

    • Ajude a produzir mais conteúdo

    00:00 / 00:00

    Cifra Club Pro

    Aproveite o Cifra Club com benefícios exclusivos e sem anúncios
    Cifra Club Pro
    Aproveite o Cifra Club com benefícios exclusivos e sem anúncios
    OK