Cifra Club

Aprenda

Atriz

Violins

Cifra: Principal (violão e guitarra)
tom: Db

Atriz:
Violins

Afinação:
Convencional---->Violins
e(mizinha) --->       D#
B ------------>       A#
G ------------->      F
D ------------->      B
A-------------->      F#
E (mizona)----->      C#

Intro/ VERSO Afinação:

Pode ser que eu não me convença ao ver você morrer
Que eu não veja paz em ver você sorrir
Mas quando você chora eu posso ser melhor por ser feliz
D#|--------------------------------------
A#|-------3------3-------3--------3------
F|------0--0---0---0---0---0----0---0----
B|---------------------------------------
F#|--------------------------------------
C#|---0------0-------0-------0----------

D#|--------------------------------------
A#|-------2------2-------2--------2------
F|------0--0---0---0---0---0----0---0----
B|---------------------------------------
F#|--------------------------------------
C#|---0------0-------0-------0--------0--

O que eu não posso é acordar com você gritando assim
Que vai pular e que eu nunca quis
Ver você se apresentar numa peça, eu sempre quis!
"mas nunca dá”, você me diz
-->(repete essa sequencia 2 vezes)
8 vezes
D#|---------------------------
A#|---------------------------
F|-----0-----0-----0----------
B|---2------2----2------------
F#|-0-----0----0--------------
C#|---------------------------
8vezes
D#|-------------------------
A#|-------------------------
F|------0----0---0----0-----
B|----2----2----1---1-------
F#|-------------------------
C#|-0----0-----0--0---------

-->pontezinha pro refrão:
2vezes
D#|--------------------------------------------2--
A#|--------------------------------------------3--
F|------0-------0-----0-----0-----0------0-----1--
B|----2---2---2-----2---2--2-----2--2--2---2---2--
F#|--4------4------2-----2-----0-----0---------0--
C#|--------------------------------------------0--

Vai saber quantos corpos jazem sob o seu poder
Quantos beijos você quis distribuir
E eu que nunca sei se você pensa mesmo em ser atriz
-->3vezes
D#|---0--0--0--0---0--0--0--0-----------------
A#|---0--0--0--0---0--0--0--0-----------------
F|----8--8--8--8---8--8--8--8-----------------
B|----9--9--9--9---9--9--9--9-----------------
F#|---7--7--7--7---6--6--6--6-----------------
C#|---0--0--0--0---0--0--0--0-----------------

O que eu não posso é divulgar que você é boa atriz
Quis se matar pra quê? me diz!
Vir você me ameaçar depois de tudo o que eu te fiz
É só enxergar o seu nariz


D#|---2--2--2--2----0--0---0--0-----------------
A#|---3--3--3--3----0--0---0--0-----------------
F|----1--1--1--1----8--8---8--8-----------------
B|----2--2--2--2----9--9---9--9-----------------
F#|---0--0--0--0----7--7-- 6--6-----------------
C#|---0--0--0--0----0--0---0--0-----------------

-->Fica Um bom tempo em:
D#|---2--2--2--2
A#|---3--3--3--3
F|----1--1--1--1
B|----2--2--2--2
F#|---0--0--0--0
C#|---0--0--0--0

--> E então:
Pro seu bem, eu não durmo mais
D#|---2--2--2--2----0--0-0--0--0-0
A#|---3--3--3--3----0--0-0--0--0-0
F|----1--1--1--1----3--5-5--3--5-5
B|----2--2--2--2----4--6-6--4--6-6
F#|---0--0--0--0----2--4-4--2--4-4
C#|---0--0--0--0----0--0-0--0--0-0

D#|---0--0-0--0/-0
A#|---0--0-0--0/-0
F|----3--5-5--3/-7^
B|----4--6-6--4/-9^
F#|---2--4-4--2/-6^
C#|---0--0-0--0/-0

Fim...

por: Valter Tomaz.
Composição de Beto Cupertino
Colaboração e revisão:
  • Valter Filho
3.676 exibições
  • Simplificar cifra
    • ½ Tom
    • A
    • Bb
    • B
    • C
    • Db
    • D
    • Eb
    • E
    • F
    • F#
    • G
    • Ab
  • Adicionar à lista

    0 comentários

    Ver todos os comentários

    Conseguiu tocar?

    0 Tocaram 0 Ainda não

    Grave um vídeo tocando Atriz e nos envie!

    00:00 / 00:00
    Outros vídeos desta música
    Repetir Qualidade Automático
    Outros vídeos desta música
    00:00 / 00:00
    Automático

    Cifra Club Pro

    Aproveite o Cifra Club com benefícios exclusivos e sem anúncios
    Cifra Club Pro
    Aproveite o Cifra Club com benefícios exclusivos e sem anúncios
    OK