Cifra Club

A Cry From The Edge

Viper

Cifra: Principal (violão e guitarra)
tom: G
Riff 1 (violão) 
e|----------------------------------|
B|----------------------------------|
G|-----0-------0-------0-------0----|
D|---4---4---4---4---2---2---2---2--|
A|-3-------3------------------------|
E|-----------------0-------0--------|

e|----------------------------------|
B|----------------------------------|
G|-----0-------0-------0-------0----|
D|---4---4---4---4---2---2---2---2--|
A|-3-------5------------------------|
E|-----------------0-------0--------|

solo 1(distorção)
e|------------------------------------------------|
B|---------10------------10-12-10~----------------|
G|-/9-11-12---9~~~--9-12-----------12--12-11-9~~~-|
D|------------------------------------------------|
A|------------------------------------------------|
E|------------------------------------------------|



Riff 2(violão)
Em C G D(2 vezes)
 
solo 2 (distorção)                                                     x3                              
e|----------19-17----------|-----------------------------|-------|
B|-17---17--------20-19----|-17---17---------------------|--17~--|
G|----17----------------19-|----17----17-19-19h21-19-19--|-------|
D|-------------------------|-----------------------------|-------|
A|-------------------------|-----------------------------|-------|
E|-------------------------|-----------------------------|-------|



Riff 3 (guitarra 1)


e|------------------------------------------|
B|------------------------------------------|
G|----9----9--12--7--9---9------5-----7-----|
D|----9----9--12--7--9---9------5-----7-----|
A|----7----7--10--5--7---7-7777-3-333-5-555-|
E|-00---00----------------------------------|
   mm   mm                 mmmm   mmm   mmm


Riff 4 (voz)


e|--------------------------------------|
B|--------------------------------------|
G|----9----9--12--7--5----5-----5----7--|
D|----9----9--12--7--5----5-----5----7--|
A|----7----7--10--5--4----4--33-3-55-5--|
E|-00---00------------------------------|
   mm   mm                   mm   mm


e|------------------------------------|
B|------------------------------------|
G|----9----9--12--7--5----5-----------|
D|----9----9--12--7--5----5-----------|
A|----7----7--10--5--3----3---000000--|
E|-00---00----------------------------|
   mm   mm                    mmmmmm
fim
e|-----|
B|-----|
G|--5--|
D|--5--|
A|--3--|
E|-----|

Riff 5(ponte e refrão)
e|-----------------------------------------------|
B|-----------------------------------------------|
G|--5---7---9------9-9------9--7------7-7------7-|
D|--5---7---9------9-9------9--7------7-7------7-|
A|--3---5---7-7777-7-7-7777-7--5-5555-5-5-5555-5-|
E|-----------------------------------------------|
              mmmm     mmmm      mmmm     mmmm
e|-------------------------------------|
B|-------------------------------------|
G|-5------5-5------5-5------5-7------7-|
D|-5------5-5------5-5------5-7------7-|
A|-3-3333-3-3-3333-3-3-3333-3-5-5555-5-|
E|-------------------------------------|
     mmmm     mmmm     mmmm     mmmm


e|---------------------------------------|
B|---------------------------------------|
G|--9------9-9------9--7------7--7--7--7-|
D|--9------9-9------9--7------7--7--7--7-|
A|--7-7777-7-7-7777-7--5-5555-5--5--5--5-|
E|---------------------------------------|
      mmmm     mmmm      mmmm  


e|-------------------------------------|
B|-------------------------------------|
G|-5------5-5------5-7------7-7------7-|
D|-5------5-5------5-7------7-7------7-|
A|-3-3333-3-3-3333-3-5-5555-5-5-5555-5-|
E|-------------------------------------|
     mmmm     mmmm     mmmm     mmmm
  
Play Riff 3
Play Riff 4
PLay Riff 5
Play Riff 3


Riff 5
00:00 / 00:00
Outros vídeos desta música
Repetir
Outros vídeos desta música
Composição de Felipe Machado / Pit Passarell
15.746 exibições
    • ½ Tom
    • A
    • Bb
    • B
    • C
    • Db
    • D
    • Eb
    • E
    • F
    • F#
    • G
    • Ab
  • Adicionar à lista

    0 comentários

    Ver todos os comentários

    Conseguiu tocar?

    2 Tocaram 0 Ainda não

    Grave um vídeo tocando A Cry From The Edge e nos envie!

    Entre para oCifra Club PRO

    Tenha acesso a benefícios exclusivos no App e no Site

    • Chega de anúncios

    • Prioridade de compra em lançamentos

    • Mais recursos no app do Afinador

    • Atendimento Prioritário

    • Descontos nos produtos Cifra Club

    • Ajude a produzir mais conteúdo

    00:00 / 00:00

    Cifra Club Pro

    Aproveite o Cifra Club com benefícios exclusivos e sem anúncios
    Cifra Club Pro
    Aproveite o Cifra Club com benefícios exclusivos e sem anúncios
    OK