Cifra Club

At Least A Chance

Viper

Cifra: Principal (violão e guitarra)
tom: G
Introdução 
Guitarra 1              x2 
e|---------------------| 
B|---------------------| 
G|-2-------7-----------| 
D|-2-------7--------5--| 
A|-0-------5--------5--| 
E|------------------3--| 
                                                      x2 
e|-----------------------------------------------------| 
B|-----------------------------------------------------| 
G|-----------------------------------------------------| 
D|-2---------------------------------------------------| 
A|-0-00000-00000-00000-0000-3------------5-------------| 
E|--------------------------1-11111-1111-3-33333-3333--| 
     mmmmm mmmmm mmmmm mmmm   mmmmm mmmm   mmmmm mmmm   


e|----------------------------------------------| 
B|----------------------------------------------| 
G|----------------------------------------------| 
D|----------------------------------------------| 
A|-2------------3------------5----5----5----5-5-| 
E|-0-00000-0000-1-11111-1111-3----3----3----3-3-| 
     mmmmm mmmm   mmmmm mmmm 


Guitarra 2                                x4 
e|---------------------------------------| 
B|---------------------------------------| 
G|-----999-777-999-----999-777-999-101010| 
D|-777-------------777-------------------| 
A|---------------------------------------| 
E|---------------------------------------| 

---------------------------------- 
---------------------------------- 
-999-777--------777------------777 
--------101010------------999----- 
---------------------101010------- 
---------------------------------- 

e|-------------------------------------------------------------| 
B|-------------------------------------------------------------| 
G|-999-777-----------------------------------------------------| 
D|---------101010-999-101010-----777-101010-9-10-9-10-9-10-9~~-| 
A|---------------------------999-------------------------------| 
E|-------------------------------------------------------------| 

Verse                                                             x4 
e|-----------------------------------------------------------------| 
B|-----------------------------------------------------------------| 
G|-----------------------------------------------------------------| 
D|-----------------------------------------------------------------| 
A|-----------------5-55555-2-22222-3-33333-3-33333-5-55555-5-55555-| 
E|-0-00000-0-00000-------------------------------------------------| 
   m mmmmm m mmmmm m mmmmm m mmmmm m mmmmm m mmmmm m mmmmm m mmmmm 



ponte                             x2 
e|----------------------------| 
B|----------------------------| 
G|-2------7------9------------| 
D|-2------7------9-----3---5--| 
A|-0------5------7-----3---5--| 
E|---------------------1---3--| 

refrão 
e|-------------------------------------------------------------| 
B|-------------------------------------------------------------| 
G|-------------------------------------------------------3--3--| 
D|-------------------------7--7--------------------------3--3--| 
A|-------------------------7--7----------2-22222-3-33333-1--1--| 
E|-0-00000-5-55555-6-66666-5--5--3-33333-----------------------| 
   m mmmmm m mmmmm m mmmmm       m mmmmm m mmmmm m mmmmm 


                                                   1      2 
e|-------------------------------------------------|-----|-----| 
B|-------------------------------------------------|-----|-----| 
G|---------------------------------3---------------|--2--|--5--| 
D|---------------------------------3---------------|--2--|--5--| 
A|-0-00000-4-44444-5-55555-3-33333-1-11111-1-11111-|--0--|--3--| 
E|-------------------------------------------------|-----|-----| 
   m mmmmm m mmmmm m mmmmm m mmmmm   mmmmm m mmmmm 



Guitarra 1              x2 
e|---------------------| 
B|---------------------| 
G|-2-------------------| 
D|-2-------3--------5--| 
A|-0-------3--------5--| 
E|---------1--------3--| 

Guitarra 2                                       x2 
e|-----------------------------------------------| 
B|-----------------------------------------------| 
G|-----999-777-999-----999-777-999-101010-999-777| 
D|-777-------------777---------------------------| 
A|-----------------------------------------------| 
E|-----------------------------------------------| 

--------------------------- 
--------------------------- 
--------777------------777- 
-101010------------999----- 
------------101010--------- 
--------------------------- 
              
base do solo                                   x2 
e|----------------------------------| 
B|----------------------------------| 
G|---------------------2---------5--| 
D|-3---------2---------2---------5--| 
A|-3---------2---------0---------3--| 
E|-1---------0----------------------| 

e|-----------------------------| 
B|-----------------------------| 
G|------------4-5-----7--------| 
D|-2----4-5---4-5-----7-----9--| 
A|-2----4-5---2-3-----5-----9--| 
E|-0----2-3-----------------7--| 

e|-----------------------------| 
B|-----------------------------| 
G|-9----------4-5-----7-----8--| 
D|-9----4-5---4-5-----7-----8--| 
A|-7----4-5---2-3-----5-----6--| 
E|------2-3--------------------| 
                         x3 
e|------------------------|--------------------| 
B|------------------------|--------------------| 
G|-9-------9-------9------|--------9-----------| 
D|-9-------9-------9------|--------9-----------| 
A|-7--7-7--7--7-7--7--7---|-7-7-7--7--7-7-7-7--| 
E|------------------------|--------------------| 
      m m     m m     m     m m m     m m m m 


e|-----------------------------------------------------------| 
B|-----------------------------------------------------------| 
G|-------7-----9------4-----5----7-------7-------7-------7-7-| 
D|-5-----7-----9------4-----5----7-------7-------7-------7-7-| 
A|-5-----5-----7------2-----3----5-5-5-5-5-5-5-5-5-5-5-5-5-5-| 
E|-3---------------------------------------------------------| 
                                   mmmmm   mmmmm   m m m 
e|-----------------------------------------------------| 
B|-----------------------------------------------------| 
G|-----------------------------------------------------| 
D|-----------------7-----------------4----------------5| 
A|----------55555555----------22222222-3333333333333333| 
E|-33333333----------00000000--------------------------| 
   mmmmmmmm mmmmmmm  mmmmmmmm mmmmmmm  mmmmmmmmmmmmmmm  


----------------- 
----------------- 
----------------- 
---------------7- 
5555555555555555- 
----------------- 
mmmmmmmmmmmmmmm 


e|---------------------------------------------------------------------| 
B|---------------------------------------------------------------------| 
G|---------------------------------------------------------------------| 
D|-------7---7----------7---7------7----7----7-------------------------| 
A|-5-----5-5-5-5--------5-5-5-5----5-5--5-5--5-5---5-555--5-555--5-555-| 
E|-3-------3---3----------3---3------3----3----3---3-333--3-333--3-333-| 


verso 
ponte 
refrão 


Guitarra 1              x2 
e|---------------------| 
B|---------------------| 
G|-2-------3--------5--| 
D|-0-------3--------5--| 
A|---------1--------3--| 
E|---------------------| 
                                                       
e|-----------------------------------------------------| 
B|-----------------------------------------------------| 
G|-2---------------------------------------------------| 
D|-0-00000-00000-00000-0000-3------------5-------------| 
A|--------------------------1-11111-1111-3-33333-3333--| 
E|-----------------------------------------------------| 
     mmmmm mmmmm mmmmm mmmm   mmmmm mmmm   mmmmm mmmm 
e|--------------------------------------------------------------| 
B|--------------------------------------------------------------| 
G|-2------------------------------------------------------------| 
D|-0-00000-00000-00000-0000-3----5----2----3----5--5--5--5-5-7-| 
A|--------------------------1----3----0----1----3--3--3--3-3-5-| 
E|--------------------------------------------------------------| 
     mmmmm mmmmm mmmmm mmmm    


Guitarra 2                                                    
e|---------------------------------------------------------| 
B|---------------------------------------------------------| 
G|--------141414-121212-141414--------141414-121212-141414-| 
D|-121212----------------------121212----------------------|  
A|---------------------------------------------------------| 
E|---------------------------------------------------------| 
                                                             
e|---------------------------------------------------------| 
B|---------------------------------------------------------| 
G|-151515-141414-121212--------121212---------------121212-| 
D|----------------------151515---------------141414--------| 
A|------------------------------------151515---------------| 
E|---------------------------------------------------------| 

e|---------------------------------------------------------| 
B|---------------------------------------------------------| 
G|--------141414-121212-141414--------141414-121212-141414-| 
D|-121212----------------------121212----------------------|  
A|---------------------------------------------------------| 
E|---------------------------------------------------------| 
                                                             
e|-------------------------| 
B|-------------------------| 
G|-15-14-12----12-------12-|            
D|----------15-------14----|  
A|----------------15-------| 
E|-------------------------| 

e|-------------------------------------------------------| 
B|-------------------------------------------------------| 
G|-14-12-------------------------------------------------| 
D|-------15-14-15----12-15--14-15-14-15-14-15-14----12--| 
A|----------------14-----------------------------15------| 
E|-------------------------------------------------------| 
00:00 / 00:00
Outros vídeos desta música
Repetir
Outros vídeos desta música
Composição de Pit Passarell
5.617 exibições
    • ½ Tom
    • A
    • Bb
    • B
    • C
    • Db
    • D
    • Eb
    • E
    • F
    • F#
    • G
    • Ab
  • Adicionar à lista

    0 comentários

    Ver todos os comentários

    Conseguiu tocar?

    0 Tocaram 0 Ainda não

    Grave um vídeo tocando At Least A Chance e nos envie!

    Entre para oCifra Club PRO

    Tenha acesso a benefícios exclusivos no App e no Site

    • Chega de anúncios

    • Prioridade de compra em lançamentos

    • Mais recursos no app do Afinador

    • Atendimento Prioritário

    • Descontos nos produtos Cifra Club

    • Ajude a produzir mais conteúdo

    00:00 / 00:00

    Cifra Club Pro

    Aproveite o Cifra Club com benefícios exclusivos e sem anúncios
    Cifra Club Pro
    Aproveite o Cifra Club com benefícios exclusivos e sem anúncios
    OK