Cifra Club

Illusions

Viper

Cifra: Principal (violão e guitarra)
tom: C
introdução (violão):Dm C Dm C(6vezes)


Solo (guitarra)
e|--------------------------------|
B|--------------------------------|
G|--10~~--9-10--9h10p9------------|
D|---------------------10--12~~---|
A|--------------------------------|
E|--------------------------------|

e|----------------------------------|
B|----------------------------------|
G|--10~~--9-10--9h10p9-----12/14~~--|
D|---------------------10-----------|
A|----------------------------------|
E|----------------------------------|

e|-22--20-22-20-17--17-----------|
B|--------------------------18~~-|
G|-------------------------------|
D|-------------------------------|
A|-------------------------------|
E|-------------------------------|

e|-22--20-22-20-15-15/17~~--|
B|--------------------------|
G|--------------------------|
D|--------------------------|
A|--------------------------|
E|--------------------------|


BASE:Bb C Am Bb(violão-4vezes)


RIFF(guitarra 2)  
e|----------------------|
B|----------------------|
G|-3-----5-----2-----3--|
D|-3-----5-----2-----3--|
A|-1-----3-----0-----1--|
E|----------------------|

e|-------------------------------------|
B|-18--17-18-17--13--13----15-17-15~~--|
G|-------------------------------------|
D|-------------------------------------|
A|-------------------------------------|
E|-------------------------------------|

e|-------------------17----15-------|
B|-18--17-18-17--13-------------18--|
G|----------------------------------|
D|----------------------------------|
A|----------------------------------|
E|----------------------------------|

e|-------------------------------------|
B|-18--17-18-17--13--13----15-17-15~~--|
G|-------------------------------------|
D|-------------------------------------|
A|-------------------------------------|
E|-------------------------------------|

e|-------------------17----15-------|
B|-18--17-18-17--13-------------18--|
G|----------------------------------|
D|----------------------------------|
A|----------------------------------|
E|----------------------------------|
violão:Bb C(4vezes)


Guitarra 2 (2vezes)            
e|-----------------------------------|
B|-----------------------------------|
G|-----------------------------------|
D|-----------------------------------|
A|-1-1-1-1-1-1-1-1--3-3-3-3-3-3-3-3--|
E|-----------------------------------|
   m m m m m m m m  m m m m m m m m
                                    
e|-------------------17----15-17-15-----|
B|-18--17-18-17--13-----------------17--|
G|--------------------------------------|
D|--------------------------------------|
A|--------------------------------------|
E|--------------------------------------|

guitarra 2(2vezes)                                    
e|-----------------------------------|
B|-----------------------------------|
G|---------3----------------5--------|
D|---------3----------------5--------|
A|-1-1-1-1-1-1-1-1--3-3-3-3-3-3-3-3--|
E|-----------------------------------|
   m m m m   m m m  m m m m   m m m
e|-20---18-20-18-15--25-----24-25-24--20--22~~--|
B|-----------------------------------------------
G|----------------------------------------------|
D|----------------------------------------------|
A|----------------------------------------------|
E|----------------------------------------------|


fim:Dm
00:00 / 00:00
Outros vídeos desta música
Repetir
Outros vídeos desta música
Compositor não encontrado.
4.508 exibições
    • ½ Tom
    • A
    • Bb
    • B
    • C
    • Db
    • D
    • Eb
    • E
    • F
    • F#
    • G
    • Ab
  • Adicionar à lista

    0 comentários

    Ver todos os comentários

    Conseguiu tocar?

    0 Tocaram 0 Ainda não

    Grave um vídeo tocando Illusions e nos envie!

    Entre para oCifra Club PRO

    Tenha acesso a benefícios exclusivos no App e no Site

    • Chega de anúncios

    • Prioridade de compra em lançamentos

    • Mais recursos no app do Afinador

    • Atendimento Prioritário

    • Descontos nos produtos Cifra Club

    • Ajude a produzir mais conteúdo

    00:00 / 00:00

    Cifra Club Pro

    Aproveite o Cifra Club com benefícios exclusivos e sem anúncios
    Cifra Club Pro
    Aproveite o Cifra Club com benefícios exclusivos e sem anúncios
    OK