Cifra Club

Miles Away

Viper

Cifra: Principal (violão e guitarra)
tom: F
[Intro] A5  C5  F5  D/F# G5|
        A5  C5  D5  F5 G5|

E|-----------------|----------------------|
B|-5---------------|-5----------------5-8-|
G|---7--5--4-------|---7--5-------4-7-----|
D|-----------7-5---|----------5-7---------|4x
A|---------------7-|----------------------|
E|-----------------|----------------------|

F5                   A5
I watch the curtains fall
  G5               F5
I take my one last breath
                A5
But when I look around,
  G5            F5
I can't see you there
              A5
And then I realize
       G5                   F5
You're distant and far from me

Close my eyes and
D5        C5  G5          A5
All I can see is your face

 ( A5  C5  F5  D/F  G5 )
 ( A5  C5  D5  F5  G5 )
E|-----------------|----------------------|
B|-5---------------|-5----------------5-8-|
G|---7--5--4-------|---7--5-------4-7-----|
D|-----------7-5---|----------5-7---------|
A|---------------7-|----------------------|
E|-----------------|----------------------|

 ( A5  C5  F5  D/F  G5 )
 ( A5  C5  D5  F5  G5 )
E|-----------------|----------------------|
B|-5---------------|-5----------------5-8-|
G|---7--5--4-------|---7--5-------4-7-----|
D|-----------7-5---|----------5-7---------|
A|---------------7-|----------------------|
E|-----------------|----------------------|

F5                A5
I'm back in the hotel
  G5                F5
I wish that I could stay
              A5
Gotta pack my bags fast
    G5         F5
And get on the plane

                    A5
Our time is passing by
      G5           F5
We're throwing it away
                    D5
I'll travel all the world
        C5   G5          F5
Just to have your embrace

     G5  A5          G5            F5
Laughter helps me to deal with the pain
 G5         Bb5        F5
Will I see you again?
       G5         A5        G5     F5
All of this turns my head into a maze
    G5        Bb5
I'm lost and lonely
Em "Will I see you again?" e "I´m lost and lonely"

E|---------------|
B|---------------|
G|---------------|
D|-----5---5-----|
A|---8---8---8---|
E|-6-------------|

A5 C5  F5
Miles away
  D5         G5
I know we're distant
A5 C5  F5
Miles away
       D5       G5       F5
You're not that far from me
     G5           A5
That only makes me see
G5                 F5 G5        A5
How we're meant to be till the end

[Solo] Em  A5  G5  C5|
       Em  A5  B5  B5
       Em  A5  G5  C5|
       Em  A5  B5  B5

F5     G5  A5          G5            F5
 Laughter helps me to deal with the pain
 G5         Bb5        F5
Will I see you again?
       G5         A5        G5     F5
All of this turns my head into a maze
    G5        Bb5
I'm lost and lonely

A5 C5  F5
Miles away
  D5         G5
I know we're distant
A5 C5  F5
Miles away
  D5         G5
I just can´t (...)
A5 C5  F5
Miles away
  D5         G5
Knock me down, I´m
A5 C5  F5
Miles away
       D5       G5       F5
You're not that far from me
     G5           A5
That only makes me see
G5                 F5 G5        A5
How we're meant to be till the end

 ( A5  C5  F5  D/F  G5 )
 ( A5  C5  D5  F5  G5 )

E|-----------------|----------------------|
B|-5---------------|-5----------------5-8-|
G|---7--5--4-------|---7--5-------4-7-----|
D|-----------7-5---|----------5-7---------|
A|---------------7-|----------------------|
E|-----------------|----------------------|
00:00 / 00:00
Outros vídeos desta música
Repetir
Outros vídeos desta música
Composição de Ricardo Bocci
Colaboração e revisão:
  • Andre Haddad
  • Gabriel Fox
1.795 exibições
    • ½ Tom
    • A
    • Bb
    • B
    • C
    • Db
    • D
    • Eb
    • E
    • F
    • F#
    • G
    • Ab
  • Adicionar à lista

    0 comentários

    Ver todos os comentários

    Conseguiu tocar?

    0 Tocaram 0 Ainda não

    Grave um vídeo tocando Miles Away e nos envie!

    Entre para oCifra Club PRO

    Tenha acesso a benefícios exclusivos no App e no Site

    • Chega de anúncios

    • Prioridade de compra em lançamentos

    • Mais recursos no app do Afinador

    • Atendimento Prioritário

    • Descontos nos produtos Cifra Club

    • Ajude a produzir mais conteúdo

    00:00 / 00:00

    Cifra Club Pro

    Aproveite o Cifra Club com benefícios exclusivos e sem anúncios
    Cifra Club Pro
    Aproveite o Cifra Club com benefícios exclusivos e sem anúncios
    OK