Cifra Club

To Live Again

Viper

Cifra: Principal (violão e guitarra)
tom: C
Riff 1 (introdução)
e|----------------------------------------
B|----------------------------------------
G|-2--------------------------------------
D|-2-----3-----4-----5-----6-----7---5---3
A|-0-----3-----5-----5-----7-----7---5---3
E|-------1-----2-----3-----4-----5---3---1

------------------------------|
------------------------------|
------------------------------|
------------------------------|
--------------------------5--                                           
1-1-1-1-1-1-1-3-3-3-3-3-3-3-3-|
m m m m m m m m m m m m m   m 



e|----------------------------------------------|
B|----------------------------------------------|
G|----------------------------------------------|
D|----------------------------------------------|
A|-00000000-------------------------------------|
E|----------11111111-22222222-33333333-44444444
   mmmmmmmm mmmmmmmm mmmmmmmm mmmmmmmm mmmmmmmm         


--------------------------
--------------------------
--------------------------
7---5---------------------
7---5---------------------
5---3---11111111-33333333-
        mmmmmmmm mmmmmmmm


 Solo introdução
e|---------------------------------------------------------|
B|---------------------------------------------------------|
G|-----9-7-9-----------------------------------------------|
D|--7---------10---10-9-10-12-10--10-9h10p9---9-10/12-12~~-|
A|-----------------------------------------12--------------|
E|---------------------------------------------------------|

e|-------------------------------------|
B|-------------------------------------|
G|-------------------------------------|
D|-10-9-/10-9~~---10-9----9-10-12-12~--|
A|---------------------12--------------|
E|-------------------------------------|   
                                                  
e|--------------------------------------------------------|
B|--------------------------------------------------------|
G|---------------------9-7-9------------------------------|
D|-10-9-/10-9----------------10---10-9-10-12-10-----------|
A|------------10-/12~---------------------------10---12\--|
E|--------------------------------------------------------|

Riff 2 (voz)
e|---------------------------------------------------------------|
B|---------------------------------------------------------------|
G|---------------------------------------------------------------|
D|------------------------------------------------------7------7-|
A|-7-7-7-7-7-7-7-7-0-0-0-0-0-0-0-0-3-3-3-3-3-3-3-3--5-5-5--5-5-5-|
E|---------------------------------------------------------------|
   m m m m m m m m m m m m m m m m m m m m m m m m  m m    m m 
e|---------------------------------------------------------------|
B|---------------------------------------------------------------|
G|---------------------------------------------------------------|
D|-------------------------------------------------------------7-|
A|-7-7-7-7-7-7-7-7-0-0-0-0-0-0-0-0-3-3-3-3-3-3-3-3-5-5-5-5-5-5-5-|
E|---------------------------------------------------------------|
   m m m m m m m m m m m m m m m m m m m m m m m m m m m m m m 


Riff 3 (ponte)
e|------------------------------------------------------|
B|------------------------------------------------------|
G|------------------------------------------------------|
D|-5----5----7----7----9--7--5----5----7---------5----7-|
A|-3----4----5----6----7--5--3----4----5----5----3----5-|
E|------------------------------------------3-----------|


repete Riff 2


Riff 4 (refrão)
e|-----------------------------------------------------------------|
B|-----------------------------------------------------------------|
G|-----------------------------------------------------------------|
D|-----------------------------------------------------------------|
A|-0-00000-0-00000-2-22222-2-22222-7-77777-7-77777-5-55555-5-55555-|
E|-----------------------------------------------------------------|
   m mmmmm m mmmmm m mmmmm m mmmmm m mmmmm m mmmmm m mmmmm m mmmmm
e|-----------------------------------------------------------------|
B|-----------------------------------------------------------------|
G|-----------------------------------------------------------------|
D|-----------------------------------------------------------------|
A|-3-33333-3-33333-5-55555-5-55555-2-22222-2-22222-3-33333-3-3-3-3-|
E|-----------------------------------------------------------------|
   m mmmmm m mmmmm m mmmmm m mmmmm m mmmmm m mmmmm m mmmmm m m m m


e|-----------------------------------------------|
B|-----------------------------------------------|
G|-----------------------------------------------|
D|---------2----------4------5-----5-----7-----7-|
A|-0-0-0-0-0--2-2-2-2-2--3-3-3-3-3-3-5-5-5-5-5-5-|
E|-----------------------------------------------|
   m m m m    m m m m    m m   m m   m m   m m


Guitarra 1
e|--------------------------------------------------|
B|--------------------------------------------------|
G|-9-----5-----6-----7-----8-----9---7---5-----7----|
D|-9-----5-----7-----7-----9-----9---7---5-----7----|
A|-7-----3-----4-----5-----6-----7---5---3-----5----|
E|--------------------------------------------------|
                                          
Guitarra 2 
e|-------------------------------------------------------------|
B|----12-10-12-------------------------------------------------|
G|--9----------12--12-11-12-14-12--12-11h12p11---11-12/14-14~~-|
D|--------------------------------------------14---------------|
A|-------------------------------------------------------------|
E|-------------------------------------------------------------|

e|--------------------------------------|
B|--------------------------------------|
G|-12-11-/12-11~~--12-11---11-12-14-14~-|
D|----------------------14--------------|
A|--------------------------------------|
E|--------------------------------------|   
                                                    
e|------------------------------------------------------|
B|----------------------12-10-12------------------------|
G|-12-11-/12-11------------------12---12-11-12-14-12----|
D|--------------12-/14~------------------------------14-|
A|------------------------------------------------------|
E|------------------------------------------------------|


Riff 5 (base do solo)                   
                                                          x4
e|---------------------------------------------------------|
B|---------------------------------------------------------|
G|---------------------------------------------------------|
D|-9-------------5-------------2-------------------5-----7-|
A|-7-7-7-7-7-7-7-3-3-3-3-3-3-3-0-0-0-0-0-0-0-0-3-3-3-5-5-5-|
E|---------------------------------------------------------|
     m m m m m m   m m m m m m   m m m m m m m m m   m m 


                                  x2
e|---------------------------------|
B|---------------------------------|
G|-------8-----5-------------------|
D|-5-----8-----5--------8------10--|
A|-5-----6-----3----6-6-6--8-8--8--|
E|-3-------------------------------|
                    m m    m m 
                                                          x2
e|---------------------------------------------------------|
B|---------------------------------------------------------|
G|---------------------------------------------------------|
D|-9-------------5-------------2-------------------5-----7-|
A|-7-7-7-7-7-7-7-3-3-3-3-3-3-3-0-0-0-0-0-0-0-0-3-3-3-5-5-5-|
E|---------------------------------------------------------|
     m m m m m m   m m m m m m   m m m m m m m m m   m m


repete Riff 2
repete Riff 3
repete Riff 4


Guitarra 1
e|--------------------------------------------------|
B|--------------------------------------------------|
G|-9-----5-----6-----7-----8-----9---7---5-----7----|
D|-9-----5-----7-----7-----9-----9---7---5-----7----|
A|-7-----3-----4-----5-----6-----7---5---3-----5----|
E|--------------------------------------------------|
                                          
e|------------------------------------------------------------------|
B|------------------------------------------------------------------|
G|-----------------------------------------------9--7--5----7----9--|
D|-----------------------------------------------9--7--5----7----9--|
A|-77777777-33333333-44444444-55555555-66666666--7--5--3----5----7--|
E|------------------------------------------------------------------|
   mmmmmmmm mmmmmmmm mmmmmmmm mmmmmmmm mmmmmmmm


Guitarra 2 
e|-------------------------------------------------------------|
B|----12-10-12-------------------------------------------------|
G|--9----------12--12-11-12-14-12--12-11h12p11---11-12/14-14~~-|
D|--------------------------------------------14---------------|
A|-------------------------------------------------------------|
E|-------------------------------------------------------------|

e|--------------------------------------|
B|--------------------------------------|
G|-12-11-/12-11~~--12-11---11-12-14-14~-|
D|----------------------14--------------|
A|--------------------------------------|
E|--------------------------------------|   
                                                                                                        
e|------------------------------------------------------------|
B|----------------------12-10-12------------------------------|
G|-12-11-/12-11------------------12---12-11-12-14-12-11-------|
D|--------------12-/14~-----------------------------------14~-|
A|------------------------------------------------------------|
E|------------------------------------------------------------|
00:00 / 00:00
Outros vídeos desta música
Repetir
Outros vídeos desta música
Composição de Pit Passarell
6.620 exibições
    • ½ Tom
    • A
    • Bb
    • B
    • C
    • Db
    • D
    • Eb
    • E
    • F
    • F#
    • G
    • Ab
  • Adicionar à lista

    0 comentários

    Ver todos os comentários

    Conseguiu tocar?

    0 Tocaram 0 Ainda não

    Grave um vídeo tocando To Live Again e nos envie!

    Entre para oCifra Club PRO

    Tenha acesso a benefícios exclusivos no App e no Site

    • Chega de anúncios

    • Prioridade de compra em lançamentos

    • Mais recursos no app do Afinador

    • Atendimento Prioritário

    • Descontos nos produtos Cifra Club

    • Ajude a produzir mais conteúdo

    00:00 / 00:00

    Cifra Club Pro

    Aproveite o Cifra Club com benefícios exclusivos e sem anúncios
    Cifra Club Pro
    Aproveite o Cifra Club com benefícios exclusivos e sem anúncios
    OK