Cifra Club

Persuadida

Virus

Cifra: Principal (violão e guitarra)
Selo Cifra Club: esta cifra foi revisada para atender aos critérios oficiais da nossa Equipe de Qualidade.
tom: E
Intro

Riff1 Riff2 (x2)

Riff1                       Riff2
   Se asoma a la ventana y mira,
Riff1                       Riff2
   se siente distanciada y llora
Riff1                     Riff2
   No puede entregarse a nadie
Riff1                     Riff2
   esta muy persuadida y sola.

B5                 A5
   (Oh, oh) Vida nueva al sol,
B5                 A5
   (Oh, oh) con ratos de amor
B5                 A5
   (Oh, oh) Sueña que es verdad
B5                   A5
   (Oh, oh) No va a despertar.

Riff1 Riff2 (x2)

   Vive la vida día a día,
   contando el paso de las horas.
   No puede estar sin observarse,
   está muy persuadida y sola.

   (Oh, oh) Vida nueva al sol,
   (Oh, oh) con ratos de amor
   (Oh, oh) Sueña que es verdad
   (Oh, oh) No va a despertar.

B A

Riff3 (Teclado) (x4)

Riff1 Riff2 (x2)

   Se asoma a la ventana y mira...

   (Oh, oh) Vida nueva al sol...

B A

Riff3 (Teclado) (x4)

B A

Acordes

Referencia

h = ligadura

E|-------------------------------|
B|-------------------------------|
G|-------------------------------|
D|-------------------------------|
A|-2-4-2-4-2h4-2-4-2-4-2-4-2h4-2-|
E|-------------------------------|
               Intro
E|-------------------|
B|-------------------|
G|-------------------|
D|-------------------|
A|-2-2-4-2-4-2h4-2-4-|
E|-------------------|
          Riff1
E|-----------------|
B|-----------------|
G|-----------------|
D|-----------------|
A|-----------------|
E|-2-2-4-2-4-2h4-2-|
          Riff2

E|--------------------------------|
B|--------------------------------|
G|-9-8----------------------------|
D|-----9-7-9-7----------7-------7-|
A|-------------9--6-7-9---6-7-9---|
E|--------------------------------|
          Riff3 (Teclado)

E|----------2---0--|
B|----------4---2--|
G|----------4---2--|
D|--4---2---4---2--|
A|--2---0---2---0--|
E|----------2------|
     B5  A5  B   A
Outros vídeos desta música
58 exibições
    • ½ Tom
    • A
    • Bb
    • B
    • C
    • Db
    • D
    • Eb
    • E
    • F
    • F#
    • G
    • Ab
  • Adicionar à lista

Afinação da cifra

Afinador online

    0 comentários

    Ver todos os comentários

    Entre para o Cifra Club PRO

    Tenha acesso a benefícios exclusivos no App e no Site

    • Chega de anúncios

    • Mais recursos no app do Afinador

    • Atendimento Prioritário

    • Aumente seu limite de lista

    • Ajude a produzir mais conteúdo

    Cifra Club Pro

    Aproveite o Cifra Club com benefícios exclusivos e sem anúncios
    Cifra Club Pro
    Aproveite o Cifra Club com benefícios exclusivos e sem anúncios
    OK