Cifra Club

A Dor Desse Amor

Vitor e Luan

Cifra: Principal (violão e guitarra)
tom: C
[Intro] C  G/B  Am7  Em  F9 
        C/E  Dm  G4  G

E|------------------------------------------|
B|-----5/8-8-8-6-5h6p5----------------------|
G|-7h9----------------7-5---5-7-7/9-7/9/7p5-|
D|-------------------------9----------------|
A|------------------------------------------|
E|------------------------------------------|

E|------------------------------------------|
B|-------------------------5-5h6-5h6p5p3-5--|
G|------5-5-----5-5-----5h7---------------5-|
D|-5-5h7---5h7-5---3h5-3--------------------|
A|------------------------------------------|
E|------------------------------------------|

[Primeira Parte]

    C                 G/B           
Perdoa se estou te ligando
               Am7
Amor, nesse momento
              Em7              F9
Mas me fazia falta escutar de novo
              C/E              Dm7  G  G4
Só por um instante sua respiração

[Riff 1]

E|------------------------------------------|
B|----------5-6-6/8-------------------------|
G|-------5-7--------------------------------|
D|----5h7-----------------------------------|
A|------------------------------------------|
E|------------------------------------------|

    C                        G/B
Desculpa, sei que estou quebrando 
             Am7
O nosso juramento
               Em7                F9
Sei que existe outro em seu pensamento
             C/E                Dm7  G4  G
Mas meu coração pediu pra te dizer

[Pré-Refrão]

               Am7
Que estou morrendo
    Em7       F   G
Morrendo por dentro (estou morrendo)
              Am7
E é tanta saudade 
   Em7          F     G
Morando em meu peito, uh, uh, uh

[Refrão]

[Riff 2]

E|---------5-7-7/8--7h8-8-------------------|
B|----5-6-8---------8---8------10--8h10-8---|
G|-5-7-----------------------------9----9---|
D|-------------------------9h10-------------|
A|------------------------------------------|
E|------------------------------------------|

E|------------------------------------------|
B|------------------------------------------|
G|----4/5-5-7--7/9-7------------------------|
D|------------------------------------------|
A|------------------------------------------|
E|------------------------------------------|

 C       G/B               Am7
Vida, devolva minhas fantasias
      Em7               F
Meus sonhos de viver a vida
   C/E       Dm7  G
Devolva-me o ar
           C
Sem teu carinho
     G/B              Am7
Meu mundo fica tão vazio
    Em7                   F
Os dias quentes são tão frios
      C/E        Dm7
E as noites me trazem
   G
A dor desse amor

[Solo] C   G/B  Am7  Em  F9 
       C/E  Dm7  G4  G

E|------------------------------------------|
B|-----5/8-8-8-6-5h6p5----------------------|
G|-7h9----------------7-5---5-7-7/9-7/9/7p5-|
D|-------------------------9----------------|
A|------------------------------------------|
E|------------------------------------------|

E|------------------------------------------|
B|-------------------------5-5h6-5h6p5p3-5--|
G|------5-5-----5-5-----5h7---------------5-|
D|-5-5h7---5h7-5---3h5-3--------------------|
A|------------------------------------------|
E|------------------------------------------|

[Primeira Parte]

    C                 G/B           
Perdoa se estou te ligando
               Am7
Amor, nesse momento
              Em7              F9
Mas me fazia falta escutar de novo
              C/E              Dm7  G  G4
Só por um instante sua respiração

[Riff 3]

E|------------------------------------------|
B|-------5-6/8-----------5-6-6/8------------|
G|----5h7------7p5-7--5-7-------------------|
D|-5h7--------------------------------------|
A|------------------------------------------|
E|------------------------------------------|

    C                        G/B
Desculpa, sei que estou quebrando 
             Am7
O nosso juramento
               Em7                F9
Sei que existe outro em seu pensamento
             C/E                Dm7  G4  G
Mas meu coração pediu pra te dizer

[Pré-Refrão]

               Am7
Que estou morrendo
    Em7       F   G
Morrendo por dentro (estou morrendo)
              Am7
E é tanta saudade 
   Em7          F     G
Morando em meu peito, uh, uh, uh

[Refrão]

 C       G/B               Am7
Vida, devolva minhas fantasias
      Em7               F
Meus sonhos de viver a vida
   C/E       Dm7  G
Devolva-me o ar
           C
Sem teu carinho
     G/B              Am7
Meu mundo fica tão vazio
    Em7                   F
Os dias quentes são tão frios
      C/E        Dm7
E as noites me trazem
   G 
A dor desse amor

[Ponte] C  A7

 D       A/C#              Bm7
Vida, devolva minhas fantasias
      F#m7              G
Meus sonhos de viver a vida
   D/F#      Em7  A
Devolva-me o ar
             D
Sem o teu carinho
     A/C#             Bm7
Meu mundo fica tão vazio
    F#m7                  G
Os dias quentes são tão frios
      D/F#       Em7
E as noites me trazem
   A
A dor desse amor

( D A/C#  Bm7  F#m7 )

G       D/F#       Em7
  E as noites me trazem
   A             D
A dor desse amor

E|-------------------------------------------------|
B|------7/10-10-10-8-7h8p7-------------------------|
G|-9h11-------------------9-7--6-7-9-9/11-9/11/9p7-|
D|-------------------------------------------------|
A|-------------------------------------------------|
E|-------------------------------------------------|

E|-------------------------------------------------|
B|----------------------------7-7h8--7h8p7p5--7----|
G|------7-7------7-7------7h9------------------7---|
D|-7-7h9----7h9-7----5h7-5-------------------------|
A|-------------------------------------------------|
E|-------------------------------------------------|
00:00 / 00:00
Outros vídeos desta música
Repetir
Outros vídeos desta música
Compositor não encontrado.
Colaboração e revisão:
  • Gustavo Vaz
8.090 exibições
    • ½ Tom
    • A
    • Bb
    • B
    • C
    • Db
    • D
    • Eb
    • E
    • F
    • F#
    • G
    • Ab
  • Adicionar à lista

    0 comentários

    Ver todos os comentários

    Conseguiu tocar?

    0 Tocaram 0 Ainda não

    Grave um vídeo tocando A Dor Desse Amor e nos envie!

    Entre para oCifra Club PRO

    Tenha acesso a benefícios exclusivos no App e no Site

    • Chega de anúncios

    • Prioridade de compra em lançamentos

    • Mais recursos no app do Afinador

    • Atendimento Prioritário

    • Descontos nos produtos Cifra Club

    • Ajude a produzir mais conteúdo

    00:00 / 00:00

    Cifra Club Pro

    Aproveite o Cifra Club com benefícios exclusivos e sem anúncios
    Cifra Club Pro
    Aproveite o Cifra Club com benefícios exclusivos e sem anúncios
    OK