Cifra Club

Aprenda

The Spin

Vitor Mendes

Cifra: Principal (violão e guitarra)
tom: Bb
Intro:
       Csus2    Ebmaj7   Gm       Dm        Csus2    Ebmaj7   Gm       Dm
E|----3-333----3-333----3-333----1-111-|---3-333----3-333----3-333--1--|
B|----3-333----3-333----3-333----3-333-|---3-333----3-333----3-333--3--|
G|----0-000----0-000----0-000----2-222-|---0-000----0-000----0-000--2--|
D|----x-xxx--1-1-111----x-xxx----0-000-|---x-xxx--1-1-111----x-xxx--0--|
A|--3-3-333-----------1-1-111----x-xxx-|-3-3-333-----------1-1-111--x--|
E|-----------------------------1-1-111-|----------------------------1--|

Cm                     Eb
  Watching T.V., everybody's taking sides
       Bb                  Dm
  They all got nothing to say
                    Cm        Eb
  It's all about the spin
                    Bb        Dm
  It's all about the spin

Cm                     Eb
  On the surface everybody seems right
   Bb                      Dm
  Who you gonna believe today
                    Cm        Eb
  It's all about the spin
                    Bb        Dm
  It's all about the spin

Cm                          Eb
  You could read it in the New York Times
           Bb
  Watch an all-day line
   Dm               G#
  Take it your own way

                      Cm                      Eb
  It's all about the spin baby, spin baby
                             Bb                  Dm
 'Cause that's the way they win baby, win baby
                      Cm                      Eb
  It's all about the spin baby, spin baby
                           Bb     Dm
 'Cause that's the way to win

Cm                Eb
  Skin talks and bullshit walks
  Bb                  Dm
  Anything to get it sold
                    Cm        Eb
  It's all about the spin
                    Bb        Dm
  It's all about the spin

Cm                   Eb
  A pretty face with everything replaced
  Bb                        Dm
  No-one ever seems to get old
                    Cm        Eb
  It's all about the spin
                    Bb        Dm
  It's all about the spin

Cm                          Eb
  You could read it in the New York Times
           Bb
  Watch an all-day line
   Dm               G#
  Take it your own way

Cm         Gm        Eb      Bb
  Twisted truth and painted lies
   Cm      Gm        G#
  Right before your eyes

                      Cm                      Eb
  It's all about the spin baby, spin baby
                             Bb     Dm
 'Cause that's the way they win
                      Cm     Eb
  It's all about the spin
                           Bb     Dm
 'Cause that's the way to win
Interludio:
E|----------------------------------------------------------------------------|
B|------------13----13----13----13----13----13----13----13----13----13----13--|
G|----------------------------------------------------------------------------|
D|--10/13--13----13----13----13----13----13----13----13----13----13----13-----|
A|----------------------------------------------------------------------------|
E|----------------------------------------------------------------------------|

E|---------------------------------------------------------------------------|
B|-----13----13----13----13----13----13----13----13----13----13----13-13-----|
G|---------------------------------------------------------------------------|
D|--12----12----12----12----12----12----12----12----12----12----12-------12--|
A|---------------------------------------------------------------------------|
E|---------------------------------------------------------------------------|
[Repeated at high speed|        [Repeated at high speed|        [Play at high speed|
E|---------------------|        e|---------------------|        e|--21b-21-21-21-21-21-21-21-21--|
B|--16-16-16----16-----|        B|--18-18-18----18-----|        B|-------------------------------|
G|-----------15----15--|        G|-----------17----17--|        G|-------------------------------|
D|---------------------| (x4)   D|---------------------| (x8)   D|-------------------------------|
A|---------------------|        A|---------------------|        A|-------------------------------|
E|---------------------|        E|---------------------|        E|-------------------------------|


Cm         Gm        Eb      Bb
  Twisted truth and painted lies
   Cm      Gm        G#
  Right before your eyes

                      Cm     (Eb)
  It's all about the spin
                             Bb     (Dm)
 'Cause that's the way they win
                      Cm     (Eb)
  It's all about the spin
                             Bb       G#
 'Cause that's the way they win

                      Cm                      Eb
  It's all about the spin baby, spin baby
                             Bb                  Dm
 'Cause that's the way they win baby, win baby
                      Cm                      Eb
  It's all about the spin baby, spin baby
                           Bb     Dm
 'Cause that's the way to win

                      Cm             Eb
  It's all about the spin - yeah
                             Bb         Dm
 'Cause that's the way they win, oh
                    Cm        Eb
  It's all about the spin
                           Bb     Dm
 'Cause that's the way to win

( Cm  Eb  Bb  Dm ) (3x)
Colaboração e revisão:
  • Vitor Mendes
31 exibições
    • ½ Tom
    • A
    • Bb
    • B
    • C
    • Db
    • D
    • Eb
    • E
    • F
    • F#
    • G
    • Ab
  • Adicionar à lista

    0 comentários

    Ver todos os comentários

    Conseguiu tocar?

    0 Tocaram 0 Ainda não

    Grave um vídeo tocando The Spin e nos envie!

    00:00 / 00:00
    outros vídeos desta música
    repetir qualidade Automático
    Outros vídeos desta música
    00:00 / 00:00
    Automático

    Cifra Club Pro

    Aproveite o Cifra Club com benefícios exclusivos e sem anúncios
    Cifra Club Pro
    Aproveite o Cifra Club com benefícios exclusivos e sem anúncios
    OK