Cifra Club

Fora Mônica

Vivendo do Ócio

Cifra: Principal (violão e guitarra)
tom: D
Intro:

Base:
B Em
e|-----------------------------------------------|
B|----------7---10-7------------------77--10-10--|
G|----7--9-----------9-7---------77-99-----------|
D|-9--------------------9--99--99----------------|

e|-----------------------------777-10-7-----------|
B|----------7---10-7--------------------10-7-7----|
G|----7--9-----------9-7--------------------9-9---|
D|-9--------------------9--99-9-----------------9-|

Versos:
B E 

Riffs:

Jajá:

e|-777xx777xx77xx777xx777xx77xx777xx777xx77xx777xx777xx77-|
B|-777xx777xx77xx777xx777xx77xx888xx888xx88xx888xx888xx88-| 
G|-777xx777xx77xx777xx777xx77xx999xx999xx99xx999xx999xx99-|

Davide:

D|-------------------------------------------------
a|-----------5----------5-7-7-7-5/7-8--8-8-8-8-7-5-
E|-7-7-7-5/7--7-7-7-5/7----------------------------

D|-------------------------------------------------77777777-
a|-----------5----------5-7-7-7-5/7-8--8-8-8-8-7-5-77777777-
E|-7-7-7-5/7--7-7-7-5/7----------------------------55555555-

Refrão: B D E 

Ponte depois do refrão: A A/A#... 

B D E A 

solo:
e|-----------------------------------------------|
B|---------77---10-7------------------77--10-10--|
G|---77-99-----------9-7---------77-99-----------|
D|-99-------------------9--99--99----------------|

e|-----------------------777--10-7-----------------------|
B|---------777-10-7----------------10-7---7--------------|
G|---7-9-7----------9-7-----------------9---9------------|
D|-99------------------------------------------99-9-99-9~|

Versos: B E 

Riffs:

e|-777xx777xx77xx777xx777xx77xx777xx777xx77xx777xx777xx77-|
B|-777xx777xx77xx777xx777xx77xx888xx888xx88xx888xx888xx88-| 
G|-777xx777xx77xx777xx777xx77xx999xx999xx99xx999xx999xx99-|

Davide:
D|-----------------------------------------------------------------|
a|-8--8-8-8-8-7-5------------5----------5-7-7-7-5/7-8--8-8-8-8-7-5-|
E|-----------------7-7-7-5/7--7-7-7-5/7----------------------------|

D|-------------------------------------------------77777777-|
a|-----------5----------5-7-7-7-5/7-8--8-8-8-8-7-5-77777777-|
E|-7-7-7-5/7--7-7-7-5/7----------------------------55555555-|

Refrão 2:
        B D E
Agora escute Mônica!
            B D E
não vou mais ser o seu escravo !
       B D E
quem você pensa que é?
        B D E
eu não mereço tanto esculacho!

B A
Não adianta se jogar aos meus pés
   B D E
No seu teatro eu não caio mais!
   B D E
as suas coisas vão voar pela janela
         B D E
Caia fora e me deixe em paz!

Rapa daqui !

A / B D / E x3

B D B
00:00 / 00:00
Outros vídeos desta música
Repetir
Outros vídeos desta música
Composição de Jajá Cardoso
Colaboração e revisão:
  • ramon gonçalves
31.670 exibições
    • ½ Tom
    • A
    • Bb
    • B
    • C
    • Db
    • D
    • Eb
    • E
    • F
    • F#
    • G
    • Ab
  • Adicionar à lista

    0 comentários

    Ver todos os comentários

    Entre para oCifra Club PRO

    Tenha acesso a benefícios exclusivos no App e no Site

    • Chega de anúncios

    • Prioridade de compra em lançamentos

    • Mais recursos no app do Afinador

    • Atendimento Prioritário

    • Descontos nos produtos Cifra Club

    • Ajude a produzir mais conteúdo

    00:00 / 00:00

    Cifra Club Pro

    Aproveite o Cifra Club com benefícios exclusivos e sem anúncios
    Cifra Club Pro
    Aproveite o Cifra Club com benefícios exclusivos e sem anúncios
    OK