Cifra Club

Nostalgia

Vivendo do Ócio

Cifra: Principal
exibições 79.003
Tom: F
        F                   F
E|-----|            E|-----|
B|-----|            B|-----|
G|-----|   ou       G|-----|
D|--10-|            D|-----|
A|--8--|            A|--3--|
E|-----|            E|--1--|

       F/E                 F/E
E|-----|            E|-----|
B|-----|            B|-----|
G|-----|            G|-----|
D|--10-|   ou       D|-----|
A|--7--|            A|--3--|
E|-----|            E|--0--|

   Am                    Am*
E|--5--|            E|--12--|
B|--5--|            B|--13--|
G|--5--|            G|--14--|
D|--7--|            D|--14--|
A|--7--|            A|--12--|
E|--5--|            E|------|

       Dm
E|--5--|
B|--6--|
G|--7--|
D|--7--|
A|--5--|
E|-----|


Riff 1

E|--------------------------------------------------------------------------------------
B|--------------------------------------------------------------------------------------
G|--------------------------------------------------------------------------------------
D|--------------------------------------------------------------------------------------
A|------------3---5---5---5------------3---5---5---5---5b6r5---3------------------------
E|----3---5-------------------3---5--------------------------------5---5---5---5--------

Riff 2

E|----------------------------------------------------------------------------------------
B|----------------------------------------------------------------------------------------
G|----------------------------------------------------------------------------------------
D|----------------------------------------------------------------------------------------
A|-----------------3---5---5---5---5b6r5---3----------------------------------------------
E|---------3---5--------------------------------5---5---5---5-----------------------------

Riff 3           Dm               Am                    Dm

E|---------------5---5------------5-------5-------------5---------------------------------
B|---------------6-------6--------5-----------5---------6---------------------------------
G|---------------7-----------7----5---------------5-----7---------------------------------
D|---------------7----------------7---------------------7---------------------------------
A|---------------5----------------7---------------------5---------------------------------
E|--------------------------------5---5---------------------------------------------------

Riff 4

      Dm       Am*     (arpejando lentamente)

E|----5--------12--------12---------------------------------------------------------------
B|----6--------13-------------13-------------13-------------------------------------------
G|----7--------14------------------14-----------------------------------------------------
D|----7--------14---14------------------14------------------------------------------------
A|----5--------12-------------------------------------------------------------------------
E|----------------------------------------------------------------------------------------

Intro: Riff 1 / Riff 2
(Executando o Riff 3 entre os versos)


Dm                Am
   Não se desespere se eu desaparecer
            Dm
   A gente tem que dar um tempo
            Am
   Deixar tudo em seu tempo
Dm                            Am
   Não existe certo ou errado
                         Dm                     Am
   Existe o bom a se fazer e ao que você quiser


> Riff 2 (2x)
(Executando o Riff 3 entre os versos)


Dm                Am
  Quando não me achar eu devo estar em casa
Dm                      Am
  Realizando nostalgias
Dm                Am
  Vou deixar uma pista pra você
Dm
  Tenho que dar um tempo

  Tudo tem seu tempo
        Am
  Não existe argumento


Refrão :

F         F/E  Am
  Eu só queria tomar um vento na cara
F         F/E             Am
  Me deu saudade da Bahia
F         F/E  Am
  Eu só queria passar um tempo lá em casa
F                         Am
  Me deu saudade da Bahia.

> Riff 2 (2x)


Dm                Am
   Não se desespere se eu desaparecer
           Dm
   A gente tem que dar um tempo
           Am
   Deixar tudo em seu tempo
Dm
   Um dia vou voltar
             Am
   Minhas escolhas me guiaram até aqui
      Dm
   E quando eu retornar
      Am
   É porque eu consegui, oh !

F         F/E  Am
  Eu só queria tomar um vento na cara
F         F/E             Am
  Me deu saudade da Bahia
F         F/E  Am
  Eu só queria passar um tempo lá em casa
F                         Am
  Me deu saudade da Bahia.


(Executando o Riff 4 entre os versos do poema)


Dm
  Eu sou como um velho barco que guarda no seu bojo
          Am*
  O eterno ruído do mar batendo
Dm
  No entanto como esta longe o mar
                                Am*
  E como é dura a terra sob mim
   Dm                                                                    Am*
  Felizes são os pássaros que chegam mais cedo que eu a suprema fraqueza
                                Dm                                 Am*
  E voando caem felizes e abençoados... nos parques onde a primavera é eterna


> Solo (F F/E Am)


E|-----------------------------------------------------------------------------------------------------------
B|----5-----5-----5-----5------------------------------------------------------------------------------------
G|----7b9---7b9---7b9---7b9r7---5---7~---5------5------------------------------5-------5---7b9---------------
D|------------------------------------------7-------7---5---5h7---7---7~~---7-------7------------------------
A|-----------------------------------------------------------------------------------------------------------
E|-----------------------------------------------------------------------------------------------------------

E|-----------------------------------------------------------------------------------------------------------
B|---------------------------------------------------------------------------8------------------8------------
G|---5-------------------------------5-------5---7b9---5---7---5---7h9---9-------9---7---9---9-----9---7---9-
D|-------7---5---5h7---7---7~~---7-------7-------------------------------------------------------------------
A|-----------------------------------------------------------------------------------------------------------
E|-----------------------------------------------------------------------------------------------------------

E|-------------------------------8--------10b12---8------------------------------------8--------8---10b12----
B|---8---8h10---10---10~~---10-------10---------------10---8---8h10---10---10~~---10-------10----------------
G|-----------------------------------------------------------------------------------------------------------
D|-----------------------------------------------------------------------------------------------------------
A|-----------------------------------------------------------------------------------------------------------
E|-----------------------------------------------------------------------------------------------------------

E|---12r10---8-----------------------------------------------------------------------------------------------
B|---------------10---8-------8-------8---8h10---10~~---10~~---10~~---10~~---10~~~~--------------------------
G|------------------------9-------9--------------------------------------------------------------------------
D|-----------------------------------------------------------------------------------------------------------
A|-----------------------------------------------------------------------------------------------------------
E|-----------------------------------------------------------------------------------------------------------


F           F/E    Am
Eu só queria...
F           F/E    Am
Eu só queria...
F           F/E    Am
Eu só queria...
F         F/E             Am
Me deu saudade da Bahia...
Acordes para:

    0 comentários

      mostrar mais comentários

      Conseguiu tocar?

      45tocaram1ainda não

      Grave um vídeo tocando Nostalgia e mande pra gente!

      00:00 / 00:00
      outros vídeos desta música
      repetirqualidadeautomática
      Outro vídeos desta música
        00:00 / 00:00
        automática
        OK