Cifra Club

Oh! Não

Vivendo do Ócio

Cifra: Principal (violão e guitarra)
tom: E
(intro)

E|----------------------------------------------------------------------------------|
B|---------------------10-10---10-12-12--12-------12-12-10-12-10-10--10------10-----|
G|--9-9---9-12-12-9-12---------------------9-9--9-----------------------12-12---12--|
D|----------------------------------------------------------------------------------|2vezes
A|----------------------------------------------------------------------------------|
E|----------------------------------------------------------------------------------|



E                A
Não aguento mais
                          E
Cansei de olhar pra trás
                              A                  C#
E "pras" pessoas que só ficam a pensar no que é certo
A                              E
 Quem faz minha verdade sou eu!
                     A
não estou nem aí se você vai reparar
         C#9     B
Na cor da camisa que eu vesti

(refrão)
  E    A
Pensei que tudo iria mudar
E
Mas me enganei
B
Você ganhou dessa vez
E      A
Oh não! agora eu já sei
E                        B
Sua tática de me prender pode falhar dessa vez

solo 2x) E  A

E|---------------------------------------------------------------|
B|---------------------------10-10-10-8-10-10-10-10-10-8-10-10-8-|
G|-9-9-9-7-9-9-9-9-9-7-9-9-7-------------------------------------|
D|---------------------------------------------------------------|
A|---------------------------------------------------------------|
E|---------------------------------------------------------------|

E|---------------------------------------------------------------|
B|---------------------------------------------------------------|
G|-9-9-9-7-9-9-9-9-9-7-9-9-7------------------------------------|
D|---------------------------7-7-7-5-7-7-7-7-7-5-7-7-5-----------|
A|---------------------------------------------------------------|
E|---------------------------------------------------------------|


(parte 2)
 E                A
Mais um dia de sol  eu espero pra sair
 E                       A
A chuva não vai mais chegar

Eu penso em te ligar
C#                    A
Melhor ficar aqui a ler o meu jornal
  C#9                     B
Eu não entendo nada que se passa nesse jogo
   E     A
Oh não! agora eu entendi
  E              B
Você vai hesitar, mas tem que concordar
 E              A
Porque eu sei, você também tem seus motivos
E                B
Esqueça tudo isso e então vamos dançar

( E A ) (2x)

  E     A
Talvez tudo que eu disse não tenha sentido
E                      B
Meu bem, não se preocupe que depois eu te explico
00:00 / 00:00
Outros vídeos desta música
Repetir
Outros vídeos desta música
Composição de Vivendo do Ócio
Colaboração e revisão:
  • ERNANI JR
  • Danilo Pimenta
  • Gustavo Quaiatti
8.839 exibições
    • ½ Tom
    • A
    • Bb
    • B
    • C
    • Db
    • D
    • Eb
    • E
    • F
    • F#
    • G
    • Ab
  • Adicionar à lista

    0 comentários

    Ver todos os comentários

    Entre para oCifra Club PRO

    Tenha acesso a benefícios exclusivos no App e no Site

    • Chega de anúncios

    • Prioridade de compra em lançamentos

    • Mais recursos no app do Afinador

    • Atendimento Prioritário

    • Descontos nos produtos Cifra Club

    • Ajude a produzir mais conteúdo

    00:00 / 00:00

    Cifra Club Pro

    Aproveite o Cifra Club com benefícios exclusivos e sem anúncios
    Cifra Club Pro
    Aproveite o Cifra Club com benefícios exclusivos e sem anúncios
    OK