Cifra Club

Radioatividade

Vivendo do Ócio

Cifra: Principal (violão e guitarra)
tom: A
[Intro]

E|----4----4--------------------6-------------------|
A|--------------------------6/8-----5h6----6--------|
D|------------6----6----5----------------5-----5h6--|
G|--------------------------------------------------|

G#5      A#5
A terra em transe
G#5      A#5
Aportei meu navio
G#5      A#5
No caos, na barra
G#5      A#5
Pesada na Ribeira
G#5      A#5
Estado de graça
G#5      A#5
Na Praça dos Reis
G#5      A#5
Da Silva, não da selva
G#5      A#5
Só o som me salva
G#5      A#5
Eu quero, eu espero
G#5      A#5
Preciso de algo novo
G#5      A#5
Nos alto-falantes
G#5      A#5
Milagres do povo

[Refrão]

F5    G5  G#5
Avenida Sete
G#5      A#5  C5
Estrela do Norte
C5     D5   D#5
Bandeira e pau-forte
D#5
Sem medo da morte
F5     G5  G#5
Eletricidade
G#5      A#5  C5
No meu coração
C5     D5  D#5
Na rádio a canção
D#5
Radioatividade

G#5      A#5
As Portas do Carmo
G#5      A#5
Unem os caminhos
G#5      A#5
Uruguai, Pelourinho
G#5      A#5
Barbalho, Cravinho
G#5      A#5
Os leões, os cães
G#5      A#5
No meu encalço
G#5      A#5
Mas eu e os meus botões
G#5      A#5
Não damos passo em falso
G#5      A#5
O Abaeté não é só
G#5      A#5
Uma lagoa escura
G#5      A#5
Eu ando de braços
G#5      A#5
Bem dados com a loucura

[Refrão]

F5    G5  G#5
Avenida Sete
G#5      A#5  C5
Estrela do Norte
C5     D5   D#5
Bandeira e pau-forte
D#5
Sem medo da morte
F5     G5  G#5
Eletricidade
G#5      A#5  C5
No meu coração
C5     D5  D#5
Na rádio a canção
D#5
Radioatividade

G#5      A#5
Castelo Branco
G#5      A#5
Rio Vermelho
G#5      A#5
Narciso com medo
G#5      A#5
De olhar no próprio espelho

[Solo]

Refrão
F5    G5  G#5
Avenida Sete
G#5      A#5  C5
Estrela do Norte
C5     D5   D#5
Bandeira e pau-forte
D#5
Sem medo da morte
G#5         C5
Eletricidade
C5          A#5
No meu coração
A#5             F5
Na rádio a canção
G#5
Radioatividade

G#5      A#5
A terra em transe
G#5      A#5
Aportei meu navio

[Solo]

E|---------------------------------|---------------------------|------------------------------|
B|---------------------6---6---6---|-8---8----8----8---6---8---|--------------6-------6---6---|
G|---------------------------------|---------------------------|------------------------------|
D|-8---8---8---8-------------------|---------------------------|-8----8---8-------8-----------|
A|---------------------------------|---------------------------|------------------------------|
E|---------------------------------|---------------------------|------------------------------|

E|-----------------------|---------------------------------|---------------------------|
B|-8---8-----8---8-------|-----------------6-------6---8---|-8----8---6---8------------|
G|-----------------------|---------------------------------|---------------------------|
D|-------------------8---|-8---8---8-----------------------|------------------8----8---|
A|-----------------------|---------------------------------|---------------------------|
E|-----------------------|---------------------------------|---------------------------|

E|------------------------------|-----------------------------------|-------------------------------------|
B|-----6-------6---6---8---8----|-8---8-----------------------------|-------------------------------------|
G|------------------------------|-----------------------------------|-------------------------------------|
D|-8-------8--------------------|---------8---8---8---8--8--8---8---|-8---8--10-10--10--10--10-10-10--10--|
A|------------------------------|-----------------------------------|-------------------------------------|
E|------------------------------|-----------------------------------|-------------------------------------|

E|-------------------------------------|-------------------------------------|-----0---0---0---0---0---0---0---|
B|-------------------------------------|-------------------------------------|-----13--13--13--13--13--13--13--|
G|-------------------------------------|-------------------------------------|-----15--15--15--15--15--15--15--|
D|-10--10-12-12--12--12--12-12-12--12--|-12--12-13-13--13--13--13-13-13--13--|-13------------------------------|
A|-------------------------------------|-------------------------------------|---------------------------------|
E|-------------------------------------|-------------------------------------|---------------------------------|
                                                                                         F 
E|-0---0---0---0---0---0---0---0---|------------------------------|----------------------1----|
B|-13--13--13--13--13--13--13--13--|-13--16---13------------------|----------------------1----|
G|-15--15--15--15--15--15--15--15--|--------------16--15--13------|-16--15------16--15---2----|
D|---------------------------------|--------------------------15--|---------15-----------3----|
A|---------------------------------|------------------------------|----------------------3----|
E|---------------------------------|------------------------------|----------------------1----|
00:00 / 00:00
Outros vídeos desta música
Repetir
Outros vídeos desta música
Composição de Adalberto Rabelo Filho / Thadeu Meneghini / Vivendo do Ócio
Colaboração e revisão:
21.120 exibições
    • ½ Tom
    • A
    • Bb
    • B
    • C
    • Db
    • D
    • Eb
    • E
    • F
    • F#
    • G
    • Ab
  • Adicionar à lista

    0 comentários

    Ver todos os comentários

    Conseguiu tocar?

    9 Tocaram 0 Ainda não

    Grave um vídeo tocando Radioatividade e nos envie!

    Entre para oCifra Club PRO

    Tenha acesso a benefícios exclusivos no App e no Site

    • Chega de anúncios

    • Prioridade de compra em lançamentos

    • Mais recursos no app do Afinador

    • Atendimento Prioritário

    • Descontos nos produtos Cifra Club

    • Ajude a produzir mais conteúdo

    00:00 / 00:00

    Cifra Club Pro

    Aproveite o Cifra Club com benefícios exclusivos e sem anúncios
    Cifra Club Pro
    Aproveite o Cifra Club com benefícios exclusivos e sem anúncios
    OK