Cifra Club

Silas

Vivendo do Ócio

Cifra: Principal (violão e guitarra)
tom: C
Intro 2x

E|--------------------------------------------------------------------|
B|--------------------------------------------------------------------|
G|--------------------------------------------------------------------|
D|--------------------------------------------------------------------|
A|-----------4-3-------------4-3--4-3----3-----4-4-3----3-4-3---------|
E|-3-3-6-3------3--3-6-3-------------6----6----------6---------6------|

"Eu não quero fazer mal nenhum"  "   Me diga agora: qual será a boa da noite?"

E|--------------------|----------------------------------------------------|
B|-8-8--8--8-8--8-----|--4-4--4--------------------------------------------|
G|-7-7--7--7-7--7-(2x)|--3-3--3--5--5--5--5-5-5-5-0-3-0-6-5-0-3-0-6-5-3-0--|
D|-5-5--5--5-5--5-----|--1-1--1--5--5--5--5-5-5-5--------------------------|
A|--------------------|----------3--3--3--3-3-3-3--------------------------|
E|--------------------|----------------------------------------------------|

Entre os acordes G o arranjo de guitarra faz

E|-------------------------------------------------------------------------|
B|-------------------------------------------------------------------------|
G|-------------------------------------------------------------------------|
D|-------------------------------------------------------------------------|
A|----------------8-5-6-5---------------8-5-6-5----------------------------|
E|-------------------------------------------------------------------------|

Na parte "O que fizeram à mim, só quero é continuar"

E|-------------------------------------------------------------------------|
B|-------------------------------------------------------------------------|
G|---------------------------------------------------6--5------6--5--------|
D|--10-13-10-13--10--8--8--8-10-13-10----------5-8-5------5-8-5------8-5---|
A|-------------------------------------------------------------------------|
E|-------------------------------------------------------------------------|

No pré refrão o último arranjo tem um bend

E|----------------------------|
B|----------------------------|
G|--------6--5-------6b7------|
D|--5-8-5-------5-8-5---------|
A|----------------------------|
E|----------------------------|

Refrão:
D#5        C5               G5
Se essa maré me der um caldo é porque quis mergulhar de cabeça
D#5        C5                G5
Não escolho tudo que eu faço, só espero que o agora aconteça

D#         C5
Se essa maré me der um caldo
E|-------------------------------------------------------------------------|
B|--4----------------------------------------------------------------------|
G|--3--8x---5-------0-0-3-0-6-5-0-0-3-0-6-5--6-5-3-5-3--6-6-5-3-5-6-5-3----|
D|--1-------5--8x----------------------------------------------------------|
A|----------3--------------------------------------------------------------|
E|-------------------------------------------------------------------------|

Solo
E|-------------------------------------------------------------------------|
B|--4----------------------------------------------------------------------|
G|--3----5-----------[-5--3------6--5----------0-0-3-0-6-5-0-0-3-0-6-5-3---|
D|--1----5----5~------------5~---6--5-]- x4--------------------------------|
A|-------3----5~-----------------------------------------------------------|
E|------------3~-----------------------------------------------------------|
00:00 / 00:00
Outros vídeos desta música
Repetir
Outros vídeos desta música
Compositor não encontrado.
Colaboração e revisão:
  • Maria Pinheiro
  • Harrison
  • Juan Roseno
10.840 exibições
    • ½ Tom
    • A
    • Bb
    • B
    • C
    • Db
    • D
    • Eb
    • E
    • F
    • F#
    • G
    • Ab
  • Adicionar à lista

    0 comentários

    Ver todos os comentários

    Entre para oCifra Club PRO

    Tenha acesso a benefícios exclusivos no App e no Site

    • Chega de anúncios

    • Prioridade de compra em lançamentos

    • Mais recursos no app do Afinador

    • Atendimento Prioritário

    • Descontos nos produtos Cifra Club

    • Ajude a produzir mais conteúdo

    00:00 / 00:00

    Cifra Club Pro

    Aproveite o Cifra Club com benefícios exclusivos e sem anúncios
    Cifra Club Pro
    Aproveite o Cifra Club com benefícios exclusivos e sem anúncios
    OK