Cifra Club

Viés

Vivendo do Ócio

Cifra: Principal (violão e guitarra)
tom: D
Tom: A


Intro: (E D C D E) (E D C B)

(Parte 1)

(E D A B)
Parece, mas não é...
Eu tento disfarçar
Acho que você nem se liga,
Não imagina
O quanto eu tento aproximar
Para suprir, injetar nas minha veias o teu mel
Fazer minha cabeça

 A
Pare, pense, sinta, veja, olhe, observe
 G (Riff)                     A
Eu quero ver se você percebe
 B                                    A
Vou ficar a esperar se você vai notar
 G
Que eu digo teu nome
 B
E te falo o que penso sem precisar explicar

(Parte 2)

 E              D
Vivo, vislumbro e analiso
 B
Eu gosto de você
 E              D
És a minha vilã, o meu vício vital
 B
Eu gosto mesmo de você

(Riff da Parte 2)

E|----------------------------------------------|------------------------|
B|----------------------------------------------|------------------------|
G|--14-14-12-12-11-11-9-9-14-14-12-12-11-11-11--|--8-8--888--9-99--8-88--| 2X
D|----------------------------------------------|------------------------|
A|----------------------------------------------|------------------------|
E|----------------------------------------------|------------------------|

Passagem: E D C  (3X) 
         (C D E) (2X)

Base do Solo (C - C D E C D E - C - D B)

(Solo 1)

E|-------------------------------------------------------------|
B|-------------------------------------------------------------|
G|--12-11-9-9-7-9-9--7-9-11-12-12--12-11-12-14-12-11-----------|
D|-------------------------------------------------------------|
A|-------------------------------------------------------------|
E|-------------------------------------------------------------|

E|-------------------------------------------------------------|
B|-------------------------------------------------------------|
G|--12-11-9-9-11-12-11-9-9-9--11-11-11-11-11-11-8-8-8-8-8-8-8--|
D|-------------------------------------------------------------|
A|-------------------------------------------------------------|
E|-------------------------------------------------------------|

(Parte 3)

        (E D A B)
Tu és tão bela quanto sagaz
Vai entender o que digo
Vai entender que não é dessas paixões de novela
É um amor libertino, pura atração daquelas de confundir a cabeça
De me deixar sem jeito, de me esmagar o peito

A
Pare, pense, sinta, veja, olhe, observe
 G (Riff)                     A
Eu quero ver se você percebe
      B
Essa minha paixão subliminar
 A
E o seu prêmio será melhor do que tudo isso
 G
Que falei e que só faz sentido
 B
Exclusivamente pra você

(Parte 2)

 E              D
Vivo, vislumbro e analiso
 B
Eu gosto de você
 E              D
És a minha vilã, o meu vício vital
 B
Eu necessito de você

(Riff da Parte 2)

E|----------------------------------------------|------------------------|
B|----------------------------------------------|------------------------|
G|--14-14-12-12-11-11-9-9-14-14-12-12-11-11-11--|--8-8--888--9-99--8-88--| 2X
D|----------------------------------------------|------------------------|
A|----------------------------------------------|------------------------|
E|----------------------------------------------|------------------------|

(Solo 2)

E|---------------------------------------------------------------------|
A|---------------------------------------------------------------------|
D|-----------------------------------9-7-9---9-7-9---9/---12-11-7-9-9--|
G|---------------------------------------------------------------------|
B|--7-5-7-7-5-7--7-5-7-------------------------------------------------|
E|----------------------7-5-7-5----------------------------------------|

(Base: F# E D - G A)

E|-------------------------------------------------------------------------------------------|
B|-------------------------------------------------------------------------------------------|
G|--9-7-9--9-7-9--9-7-9-7----------9-7-9--9-7-9--9-7----12-9--9-7-9--9-7-9--9-7-9-7----------|
D|------------------------9-7-9-7---------------------9-----------------------------9-7-9-7--|
A|-------------------------------------------------------------------------------------------|
E|-------------------------------------------------------------------------------------------|

(Base: G A - G A B)

E|--------------------------------------------------------------------------------|
B|--------------------------------------------------------------------------------|
G|--9-9-12-9-11-9-12-9-11-9-12-9-11-9-12-9-11-9-12-9-11-9-12-9-11-9-12-9-11-9-12--|
D|--------------------------------------------------------------------------------|
A|--------------------------------------------------------------------------------|
E|--------------------------------------------------------------------------------|

E|--------------------------------------------------------------------|
B|--------------------------------------------------------------------|
G|--12-12-12-12-11-11-9-9-8-8-12-12-11-11-9-9-8-8-12-12-11-11-9-9-8-8-|
D|--------------------------------------------------------------------|
A|--------------------------------------------------------------------|
E|--------------------------------------------------------------------|

(E D C D E)
(E D C B C B)(x2)
(E D C B C)
00:00 / 00:00
Outros vídeos desta música
Repetir
Outros vídeos desta música
Composição de Jajá Cardoso
Colaboração e revisão:
  • Heitor Favaro
  • Kennet Anderson
7.043 exibições
    • ½ Tom
    • A
    • Bb
    • B
    • C
    • Db
    • D
    • Eb
    • E
    • F
    • F#
    • G
    • Ab
  • Adicionar à lista

    0 comentários

    Ver todos os comentários

    Entre para oCifra Club PRO

    Tenha acesso a benefícios exclusivos no App e no Site

    • Chega de anúncios

    • Prioridade de compra em lançamentos

    • Mais recursos no app do Afinador

    • Atendimento Prioritário

    • Descontos nos produtos Cifra Club

    • Ajude a produzir mais conteúdo

    00:00 / 00:00

    Cifra Club Pro

    Aproveite o Cifra Club com benefícios exclusivos e sem anúncios
    Cifra Club Pro
    Aproveite o Cifra Club com benefícios exclusivos e sem anúncios
    OK