Cifra Club

Aprenda

Filho Pródigo

Voz da Verdade

Cifra: Principal (violão e guitarra)
Quer fazer aulas de música com a gente? Responda essas perguntas
e nos ajude nesse projeto! →
tom: A
[Intro] Cm   D#9  F  Cm

[Solo]

E|--------------------------------------------------|
B|--------------------------------------------------|
G|--------------------------------------------------|
D|--------------------------------------------------|
A|--1-3-3----3-6-8-10-10-10--10-10-8-6-8-8----------|
E|-3-----------------------------------------3-1-6-3|

E|--------------------------------------------------|
B|--------------------------------------------------|
G|--------------------------------------------------|
D|--------------------------------------------------|
A|-----1-1-3----6-8-10--13-10--14/15--10-10-8h6h8---|
E|-1h3----------------------------------------------|

E|--------------------------------------------------|
B|--------------------------------------------------|
G|--------------------------------------------------|
D|--------------------------------------------------|
A|----1-6-3-----------------------------------------|
E|-1-3----------------------------------------------|

     Cm                     Fm
O mestre veio e anunciou,parábolas pro povo ouvir. 
     A#9                     D#           A#/D
E relatou a história de um pai cheio de amor 
      Cm                         Fm
Dois filhos bons um lar feliz, viviam em paz até que 
        A#/D                D#9        
O mais jovem pediu-lhe a herança e partiu 
      Cm                            Fm  D#/G  G#
Rumou pra longe entre deleites seus bens desperdiçou 
     A#/D                                D#
Desamparado sentindo fome do lar se recordou 
            Fm           G
Na casa do pai há pão sobrando  
                C  G
E eu pereço de dor

Refrão 
 C                E               Am  C7
Levantar-me-ei e irei ter com meu pai 
     F        C/E Dm           G
E dir-lhe-ei eu pequei contra ti 
C           E             Am  G  F
Levantar-me-ei e a ele pedirei 
 C        G         Cm
Faz-me um servo de ti 

    Cm                              Fm
O jovem pôs-se a caminhar e ainda distante do seu lar 
   A#9                   D#          A#/D
O pai avistou, cansado e triste a retornar 
   Cm                         Fm
Cheio de amor e compaixão, correu ao filho e o beijou 
   A#/D          D#        
Jubilante saiu feliz a festejar 
  Cm                           Fm  
Novas alparcas, vestes e anéis lhe ofereceu 
    A#9                            D#
E jubilante exclamou, meu filho renasceu 
    Fm                  G
Estava perdido, mas foi achado 
                 C  G
Meu filho renasceu

 C                E               Am  C7
Levantar-me-ei e irei ter com meu pai 
     F        C/E Dm           G
E dir-lhe-ei eu pequei contra ti 
C           E             Am  G  F
Levantar-me-ei e a ele pedirei 
 C        G         (Final:  F  C/E  Dm  Gsus G  C)
Faz-me um servo de ti
Composição de Elizabeth Moysés
Colaboração e revisão:
69.047 exibições
    • ½ Tom
    • A
    • Bb
    • B
    • C
    • Db
    • D
    • Eb
    • E
    • F
    • F#
    • G
    • Ab
  • Adicionar à lista

    0 comentários

    Ver todos os comentários
    00:00 / 00:00
    Outros vídeos desta música
    Repetir Qualidade Automático
    Outros vídeos desta música
    00:00 / 00:00
    Automático

    Cifra Club Pro

    Aproveite o Cifra Club com benefícios exclusivos e sem anúncios
    Cifra Club Pro
    Aproveite o Cifra Club com benefícios exclusivos e sem anúncios
    OK