Cifra Club

Pra Quê?

Voz da Verdade

Cifra: Principal (violão e guitarra)
Selo Cifra Club: esta cifra foi revisada para atender aos critérios oficiais da nossa Equipe de Qualidade.
tom: E
[Intro] F#m  E/G#  A  E  E4  E
        F#m  E/G#  A  E  E4  E

[Solo] 

E|-2/4-2-0-2---4------4-5-4-----------------|
B|---------------2----------5/7-7/9-9-9-----|
G|------------------------------------------|
D|------------------------------------------|
A|------------------------------------------|
E|------------------------------------------|

E|---------4-4-5-7-7-5-4h5p4----------------|
B|-----------------------------5------------|
G|-1h2p1------------------------------------|
D|-----2------------------------------------|
A|------------------------------------------|
E|------------------------------------------|

E|-----------4-5----------------------------|
B|-------5--------5-5/7-5-------------------|
G|-6-4-6------------------------------------|
D|------------------------------------------|
A|------------------------------------------|
E|------------------------------------------|

E|-0---0---0---0----0---0-------------------|
B|---4---2---0------------------------------|
G|-----------------2--1---------------------|
D|------------------------------------------|
A|------------------------------------------|
E|------------------------------------------|

[Primeira Parte]

           F#m  E/G#  A 
Vou lhe falar  
          E  E4  E
De um alguém
            F#m  E/G#  A 
Que pode levar
              E  E4  E
Seus sonhos além
             F#m  E/G#  A 
Vou lhe mostrar
             E  E4  E
Um mundo melhor
         F#m  E/G#  A  
Que mudará         
       B   A  E/G#
Seu caminho

[Pré-Refrão]

           A  
Vou lhe falar 
          B  
De um só Deus
         G#m      C#m  
Que mudará a sua vida
   B          A  
Numa cruz morreu
            B
Doou o seu sangue
          G#m  
Só pra curar 
           C#m  B
As suas feridas
        A            B
E este homem está aqui
            G#m         B
Só pra te amar e pra dizer

[Solo] F#m  E/G#  A  E  E4  E
       F#m  E/G#  A  E  E4  E

[Primeira Parte]

           F#m  E/G#  A 
Vou lhe falar  
          E  E4  E
De um alguém
            F#m  E/G#  A 
Que pode levar
              E  E4  E
Seus sonhos além
             F#m  E/G#  A 
Vou lhe mostrar
             E  E4  E
Um mundo melhor
         F#m  E/G#  A  
Que mudará         
       B   A  E/G#
Seu caminho

[Pré-Refrão]

           A  
Vou lhe falar 
          B  
De um só Deus
         G#m      C#m  
Que mudará a sua vida
   B          A  
Numa cruz morreu
            B
Doou o seu sangue
          G#m  
Só pra curar 
           C#m  B
As suas feridas
        A            B
E este homem está aqui
            G#m         B
Só pra te amar e pra dizer

[Refrão]

      E      C#m     G#m
Pra quê? chorar, sofrer
          A    
Se há um Deus 
          B          E
Que tudo pode por você
      C#m     G#m
Pra quê? solidão
       A               B  
Deixe Jesus cristo entrar 
            E
No teu coração

[Solo] C#m  G#m  A  B 

[Refrão]

      E      C#m     G#m
Pra quê? chorar, sofrer
          A    
Se há um Deus 
          B          E
Que tudo pode por você
      C#m     G#m
Pra quê? solidão
       A               B  
Deixe Jesus cristo entrar 
            E
No teu coração

[Solo] C#m  G#m  A  B  E

      C#m     G#m
Pra quê? solidão
       A               B  
Deixe Jesus cristo entrar 
            A  E/G#  F#m  B  E
No teu coração
Outros vídeos desta música
1.505.150 exibições
  • Simplificar cifra
    • ½ Tom
    • A
    • Bb
    • B
    • C
    • Db
    • D
    • Eb
    • E
    • F
    • F#
    • G
    • Ab
  • Adicionar à lista

Afinação da cifra

Afinador online

    0 comentários

    Ver todos os comentários

    Entre para o Cifra Club PRO

    Tenha acesso a benefícios exclusivos no App e no Site

    • Chega de anúncios

    • Mais recursos no app do Afinador

    • Atendimento Prioritário

    • Aumente seu limite de lista

    • Ajude a produzir mais conteúdo

    Cifra Club Pro

    Aproveite o Cifra Club com benefícios exclusivos e sem anúncios
    Cifra Club Pro
    Aproveite o Cifra Club com benefícios exclusivos e sem anúncios
    OK