Cifra Club

Quarterback

Wallows

Cifra: Principal (violão e guitarra)
tom: B
[Tab - Intro]

E|-11-9----11-11-9----9--11-9----11-11-9----11--------|
B|------9-----------9---------9-----------9-----------|
G|----------------------------------------------------|
D|----------------------------------------------------|
A|----------------------------------------------------|
E|----------------------------------------------------|

E|-11-9----11-11-9-------11-9----11-11-9--------------|
B|------7-----------7-9-------7----------7------------|
G|----------------------------------------------------|
D|----------------------------------------------------|
A|----------------------------------------------------|
E|----------------------------------------------------|

E7M
    I'm anxious, pacin'

Thoughts are racin'
B
  Is this over?

Why won't you call my number?

E7M
    You said "I'll be alright"

I knew by the look in your eyes
B
  But anytime you want you know I'll be the one

Do you feel the same or was it just for fun?

E7M
   'Cause summer's gone

I'm alone wishin', for your call, startin' to freak
     B
I'm not sure if he's comin' over for the night

Quarterback's fine

C#m
    Summer's gone
                   F#
I'm alone wishin', for your call, startin' to freak
     B                           E7M
I'm not sure if he's comin' over for the night

Quarterback's fine

C#m
    Spotlights, burn down
F#
   I'm left with my doubts
B
  Yeah we're done, but what for?
E7M
    I don't play for a team sport

C#m
    You said "I'll be alright"
F#
   I knew by the look in your eyes
B
  But anytime you want you know I'll be the one
E7M
    Racin' to your door even against

The odds, but now

B
  Summer's gone

I'm alone wishin', for your call, startin' to freak
    E7M
I'm not sure if he's comin' over for the night

Quarterback's fine

B
  Summer's gone

I'm alone wishin', for your call, startin' to freak
     E7M
I'm not sure if he's comin' over for the night

Quarterback's fine
00:00 / 00:00
Outros vídeos desta música
Repetir
Outros vídeos desta música
Composição de Wallows
Colaboração e revisão:
  • Vitor
7 exibições
    • ½ Tom
    • A
    • Bb
    • B
    • C
    • Db
    • D
    • Eb
    • E
    • F
    • F#
    • G
    • Ab
  • Adicionar à lista

    0 comentários

    Ver todos os comentários

    Conseguiu tocar?

    0 Tocaram 0 Ainda não

    Grave um vídeo tocando Quarterback e nos envie!

    Entre para oCifra Club PRO

    Tenha acesso a benefícios exclusivos no App e no Site

    • Chega de anúncios

    • Prioridade de compra em lançamentos

    • Mais recursos no app do Afinador

    • Atendimento Prioritário

    • Descontos nos produtos Cifra Club

    • Ajude a produzir mais conteúdo

    00:00 / 00:00

    Cifra Club Pro

    Aproveite o Cifra Club com benefícios exclusivos e sem anúncios
    Cifra Club Pro
    Aproveite o Cifra Club com benefícios exclusivos e sem anúncios
    OK