Cifra Club

Boas Notícias

Wander Wildner

Cifra: Principal (violão e guitarra)
Tom: G
Intro:

     C                       G                       D                      G
E|-----------------------|-----------------------|----------------------|-----------------------|
B|-----------------------|-----------------------|----------------------|-----------------------|
G|-----------------------|-----------------------|----------------------|-----------------------|
D|-------2-3-3/5--5-3--2-|-----------------------|------4-5-5/7--7-5--4-|-----------------------|
A|-3---3-----------------|-------2-3-3/5--5-3--2-|-5--5-----------------|------2-3-3/5-5-3--2---|
E|-----------------------|-3---3-----------------|----------------------|-3--3----------------3-|

             G                                    C
Com a barba feita e os sentidos aguçados eu olho mapa
          D                                    G
Que engessado mostra apenas um caminho e mais nada
            G                                     C
Atrás do estábulo deixei adormecida guardada uma carta
         D                                              G
E me prometa leia apenas quando o sol alcançar atrás da mata

           C                                          G
Eu lhe prometo que trarei boas notícias quando eu voltar
              D                            G
se eu não voltar as boas notícias estarão lá
         C                               G
Se por acaso as boas notícias não encontrar, você
      D         G
aí fudeu, aí fudeu

Solo:

      C                        G                        D                       G
E|------------------------|------------------------|-----------------------|--------------------------|
B|------------------------|------------------------|-----------------------|--------------------------|
G|------------------------|------------------------|-----------------------|--------------------------|
D|-------2-3-3/5--5-3--2--|------------------------|------4-5-5/7--7-5--4--|--------------------------|
A|-3---3------------------|-------2-3-3/5--5-3--2--|-5--5------------------|-------2-3-3/5--5-3--2----|
E|------------------------|-3---3------------------|-----------------------|-3---3------------------3-|

         G                                          C
No wallkman eu tenho carga pra seis horas e Johnny Cash
          D                               G
Não aprendi a ler as horas no relógio digital
           G                                      C
Com a luz baixa eu me viro com a lanterna de seu pai
           D                                    G
Quando Berlin estiver a poucas milhas dou um sinal

           C                                          G
Eu lhe prometo que trarei boas notícias quando eu voltar
              D                            G
se eu não voltar as boas notícias estarão lá
         C                               G
Se por acaso as boas notícias não encontrar, você
      D         G
aí fudeu, aí fudeu

           C                                          G
Eu lhe prometo que trarei boas notícias quando eu voltar
              D                            G
se eu não voltar as boas notícias estarão lá
         C                               G
Se por acaso as boas notícias não encontrar, você
      D         G
aí fudeu, aí fudeu
exibições 19.638
Acordes para:
    Composição: Gustavo Kaly Colaboração e revisão:

    0 comentários

    mostrar mais comentários

    Conseguiu tocar?

    5 tocaram 1 ainda não

    Grave um vídeo tocando Boas Notícias e mande pra gente!

    00:00 / 00:00
    outros vídeos desta música
    repetir qualidade Automático
    Outros vídeos desta música
    00:00 / 00:00
    Automático
    OK