Cifra Club

I Saw Red

Warrant

Cifra: Principal (violão e guitarra)
tom: D
Intro:
E|---------------3------2-----3------------------------3-----2------3------|
B|-------------------3-----3------3-----------------------3------3-----3---|
G|----------0---------------------------------------0----------------------|
D|------2--------------------------------------2---------------------------|
A|---3---------------------------------------------------------------------|
E|-----------------------------------------0-------------------------------|
                                                                 Cadd9
E|----------------3p2----------2h3-------------------------3------3---3--|
B|------------3--------3--------------3----------------------3----3---3--|
G|-------2-----------------2--------------0-------------0---------0---0--|
D|----0-----------------------------------------------2-----------2---2--|
A|-------------------------------------------------3--------------3---3--|
E|-----------------------------------------------------------------------|

 Verse:                                                         Cadd9
E|-------------0------------0------------0----------------------3---3-|
B|----------3------------3------------3-----------------------3-3---3-|
G|-------0------------0------------0--------------7+--------0---0---0-|(2)
D|----5------------4------------2-----------------7+------2-----2---2-|
A|-------------------------------------------/5---------3-------3---3-|
E|--------------------------------------------------------------------|

       Em7     Asus4  Cadd9  G      D      Em7    Asus4  Cadd9    G
E|-----3-------3-------3----3------3-------3------3------3-------3-------|
B|-----3-------3-------3----3------3-------3------3------3-------3-------|
G|-----0-------2-------0----0------2-------0------2------0-------0-------|
D|-----2-------2-------2----0------0-------2------2------2-------0-------|
A|-----2-------0-------3----2--------------2------0------3-------2-------|
E|-----0--------------------3--------------0---------------------3-------|
       *       *       *    *              *      *      *       *

Refrão:
   Em7   G     D
E|--3---3-----2----3p2------------2h3----------------------3-------|
B|--3---3-----3-----------3-------------3---------------------3----|
G|--0---0-----2---------------2-------------0------------0---------|
D|--2---0-----0---------------------------------------2------------|
A|--2---2-----------------------------------------3----------------|
E|--0---3----------------------------------------------------------|
    Em7   G    D
E|--3----3----2----3p2----------2h3--------------------3-----------3-----|
B|--3----3----3---------3-------------3-------------------3-----------3--|
G|--0----0----2-------------2-------------0----------0------------0------|
D|--2----0----0-----------------------------------2------------2---------|
A|--2----2------------------------------------3--------------------------|
E|--0----3---------------------------------------------------0-----------|

E|----------------------------------------------3--------------3-------|
B|-----------3p2--------2h3------------------------3--------------3----|
G|--------2-------2--------------------------0--------------0----------|
D|----2--------------2------------------2----------------2-------------|
A|-0-------------------------0---2--3----------------------------------|
E|-----------------------------------------------------0---------------|
                                        Cadd9
E|----------------------------------------------3-----3----------|
B|------------3p2---------2h3----------------------3--3----------|
G|--------2--------2-------------------------0--------0----------|
D|----2----------------2------------------2-----------2----------|
A|-0---------------------------0---2--3---------------3----------|
E|---------------------------------------------------------------|
                                                      *
    D           G    Cadd9  D
E|-2--3p2------3-----3-----2----3p2---------|
B|-3------3----3-----3-----3---------3------|
G|-2--------2--0-----0-----2------------2---|
D|-0-----------0-----2-----0----------------|
A|-------------2-----3----------------------|
E|-------------3----------------------------|
               *     *

(Intro / verso / Refrão)
E|---------------3------2-----3------------------------3-----2------3------|
B|-------------------3-----3------3-----------------------3------3-----3---|
G|----------0---------------------------------------0----------------------|
D|------2--------------------------------------2---------------------------|
A|---3---------------------------------------------------------------------|
E|-----------------------------------------0-------------------------------|
                                                                 Cadd9
E|----------------3p2----------2h3-------------------------3------3-------|
B|------------3--------3--------------3----------------------3----3-------|
G|-------2-----------------2--------------0-------------0---------0-------|
D|----0-----------------------------------------------2-----------2-------|
A|-------------------------------------------------3--------------3-------|
E|------------------------------------------------------------------------|
                                                                  *
Ponte:
         Em7   G     D     Cadd9
E|------3-----3-----2------3--------|
B|------3-----3-----3------3--------|
G|------0-----0-----2------0--------|
D|------2-----0-----0------2--------|
A|------2-----2------------3--------|
E|------0-----3---------------------|
        *     *     *      *
    Em7       D                                          Em7    G
E|--3--------2----3p2--------2h3----------------3--------3-----3---|
B|--3--------3---------3----------3---------------3------3-----3---|
G|--0--------2------------2---------0---------0----------0-----0---|
D|--2--------0-----------------------------2-------------2-----0---|
A|--2----------------------------------3-----------------2-----2---|
E|--0----------------------------------------------------0-----3---|
    *
        D
E|-----2----3p2------------2h3----------------------3-------------3------|
B|-----3-----------3-------------3----------------------3-----------3----|
G|-----2---------------2-------------0------------0-------------0--------|
D|-----0---------------------------------------2--------------2----------|
A|-----------------------------------------3-----------------------------|
E|----------------------------------------------------------0------------|
00:00 / 00:00
Outros vídeos desta música
Repetir
Outros vídeos desta música
Composição de Jani Lane
Colaboração e revisão:
  • thiago henrique
1.272 exibições
    • ½ Tom
    • A
    • Bb
    • B
    • C
    • Db
    • D
    • Eb
    • E
    • F
    • F#
    • G
    • Ab
  • Adicionar à lista

    0 comentários

    Ver todos os comentários

    Conseguiu tocar?

    0 Tocaram 0 Ainda não

    Grave um vídeo tocando I Saw Red e nos envie!

    Entre para oCifra Club PRO

    Tenha acesso a benefícios exclusivos no App e no Site

    • Chega de anúncios

    • Prioridade de compra em lançamentos

    • Mais recursos no app do Afinador

    • Atendimento Prioritário

    • Descontos nos produtos Cifra Club

    • Ajude a produzir mais conteúdo

    00:00 / 00:00

    Cifra Club Pro

    Aproveite o Cifra Club com benefícios exclusivos e sem anúncios
    Cifra Club Pro
    Aproveite o Cifra Club com benefícios exclusivos e sem anúncios
    OK