Cifra Club

While Im Still Strong

Weeping Willows

Cifra: Principal (violão e guitarra)
Selo Cifra Club: esta cifra foi revisada para atender aos critérios oficiais da nossa Equipe de Qualidade.
tom: Em
    C#m       A          B         G#m        A         F#m      G#m
   4/4
    Gtr I
    Q Q Q Q    H.    Q   Q Q Q Q    H.    Q   Q Q Q Q    Q H Q    Q Q Q Q
||------4---|-^5-------|-----2---|-^4-------|-----0---|-^2-0---|E|-----------||
||o---5---5-|-^5-----5-|---4---4-|-^4-----4-|---2---2-|-^2---2-|-^4--------|
||--6-------|-^6-------|-4-------|-^4-------|-2-------|-^2-----|-^4-----5--|
||----------|----------|---------|----------|---------|--------|------6----|
||o-4-------|--7-------|-2-------|--6-------|-0-------|--------|-^6-6------|
||----------|----------|---------|----------|---------|--2-----|E|-----------||
    H   H      H   H     H   H      H   H     H   H      H H


                   3.
                                                    A
  H.      Q     3x  Q  Q  Q  Q    Q  Q  Q  Q        Q  Q  Q  Q
E|E|-----------|-|--| |--4--4--4--4--|-4--4--4--4---||---0--0--0--0--|
B|-5-------4--|-o| |--4--4--4--4--|-4--4--4--4---||o--2--2--2--2--|
G|E|-----------|-|--| |--5--5--5--5--|-5--5--5--5---||---2--2--2--2--|
D|E|-----------|-|--| |--6--6--6--6--|-6--6--6--6---||---2--2--2--2--|
A|E|-----------|-|-o| |--6--6--6--6--|-6--6--6--6---||o--0--0--0--0--|
E|E|-----------|-|--| |--4--4--4--4--|-4--4--4--4---||E|E|-----------|----||


  B             E             G#m           A
  Q  Q  Q  Q    Q  Q  Q  Q    Q  Q  Q  Q    Q  Q  Q  Q
E|-2--2--2--2--|-0--0--0--0--|-4--4--4--4--|-0--0--0--0--|----|
B|-4--4--4--4--|-0--0--0--0--|-4--4--4--4--|-2--2--2--2--|----|
G|-4--4--4--4--|-1--1--1--1--|-4--4--4--4--|-2--2--2--2--|----|
D|-4--4--4--4--|-2--2--2--2--|-6--6--6--6--|-2--2--2--2--|----|
A|-2--2--2--2--|-2--2--2--2--|-6--6--6--6--|-0--0--0--0--|----|
E|E|-----------|--|-0--0--0--0--|-4--4--4--4--|E|-----------|--|----|


             1.                    2.
  B          G#m       C#m           C#m
  Q Q Q Q    Q Q Q Q   Q Q Q Q     Q Q Q Q   Q Q Q Q
E|-2-2-2-2--|-4-4-4-4-|-4-4-4-4--| |-4-4-4-4-|-4-4-4-4-|----|
B|-4-4-4-4--|-4-4-4-4-|-5-5-5-5-o| |-5-5-5-5-|-5-5-5-5-|----|
G|-4-4-4-4--|-4-4-4-4-|-6-6-6-6--| |-6-6-6-6-|-6-6-6-6-|----|
D|-4-4-4-4--|-6-6-6-6-|-6-6-6-6--| |-6-6-6-6-|-6-6-6-6-|----|
A|-2-2-2-2--|-6-6-6-6-|-4-4-4-4-o| |-4-4-4-4-|-4-4-4-4-|----|
E|----------|-4-4-4-4-|----------| |---------|---------|----|


                                                                 1.
    C#m       A          B         G#m        A         F#m      G#m
   4/4
    Gtr I
    Q Q Q Q    H.    Q   Q Q Q Q    H.    Q   Q Q Q Q    Q H Q    Q Q Q Q
||------4---|-^5-------|-----2---|-^4-------|-----0---|-^2-0---|E|-----------||
||o---5---5-|-^5-----5-|---4---4-|-^4-----4-|---2---2-|-^2---2-|-^4--------|
||--6-------|-^6-------|-4-------|-^4-------|-2-------|-^2-----|-^4-----5--|
||----------|----------|---------|----------|---------|--------|------6----|
||o-4-------|--7-------|-2-------|--6-------|-0-------|--------|-^6-6------|
||----------|----------|---------|----------|---------|--2-----|E|-----------||
    H   H      H   H     H   H      H   H     H   H      H H


               2.                    Q=120               1.
               Q Q Q Q   Q Q Q Q     Q Q Q Q   Q Q Q Q   Q Q Q Q
|-|---------||-4-4-4-4-|-4-4-4-4-||--0-0-0-0-|-2-2-2-2-|-0-0-0-0-|---|
|-|-5----4-o||-4-4-4-4-|-4-4-4-4-||o-2-2-2-2-|-4-4-4-4-|-0-0-0-0-|---|
|-|---------||-5-5-5-5-|-5-5-5-5-||--2-2-2-2-|-4-4-4-4-|-1-1-1-1-|---|
|-|---------||-6-6-6-6-|-6-6-6-6-||--2-2-2-2-|-4-4-4-4-|-2-2-2-2-|---|
|-|--------o||-6-6-6-6-|-6-6-6-6-||o-0-0-0-0-|-2-2-2-2-|-2-2-2-2-|---|
|-|---------||-4-4-4-4-|-4-4-4-4-||--0-0-0-0-|-2-2-2-2-|-0-0-0-0-|---|
    H.   Q


                  2.
  Q  Q  Q  Q      Q  Q  Q  Q    Q  Q  Q  Q
E|-4--4--4--4---| |-4--4--4--4--|-4--4--4--4--|
B|-4--4--4--4--o| |-4--4--4--4--|-5--5--5--5--|
G|-4--4--4--4---| |-4--4--4--4--|-6--6--6--6--|
D|-6--6--6--6---| |-6--6--6--6--|-6--6--6--6--|
A|-6--6--6--6--o| |-6--6--6--6--|-4--4--4--4--|
E|-4--4--4--4---| |-4--4--4--4--|E|-----------|--|

  Q  Q  Q  Q    Q  Q  Q  Q    Q  Q  Q  Q    Q  Q  Q  Q
E|-0--0--0--0--|-2--2--2--2--|-0--0--0--0--|-4--4--4--4--|
B|-2--2--2--2--|-4--4--4--4--|-0--0--0--0--|-4--4--4--4--|
G|-2--2--2--2--|-4--4--4--4--|-1--1--1--1--|-4--4--4--4--|
D|-2--2--2--2--|-4--4--4--4--|-2--2--2--2--|-6--6--6--6--|
A|-0--0--0--0--|-2--2--2--2--|-2--2--2--2--|-6--6--6--6--|
E|-0--0--0--0--|-2--2--2--2--|-0--0--0--0--|-4--4--4--4--|


                                                                1.
  Q Q Q Q   Q Q Q Q   Q Q Q Q   Q Q Q Q     Q Q Q Q   Q Q Q Q   Q Q Q Q
E|-0-0-0-0-|-0-0-0-0-|-2-2-2-2-|-2-2-2-2-| |--0-0-0-0-|-2-2-2-2-|-0-0-0-0-|
|-2-2-2-2-|-2-2-2-2-|-4-4-4-4-|-4-4-4-4-||o-2-2-2-2-|-4-4-4-4-|-0-0-0-0-|
E|-2-2-2-2-|-2-2-2-2-|-4-4-4-4-|-4-4-4-4-| |--2-2-2-2-|-4-4-4-4-|-1-1-1-1-|
B|-2-2-2-2-|-2-2-2-2-|-4-4-4-4-|-4-4-4-4-| |--2-2-2-2-|-4-4-4-4-|-2-2-2-2-|
|-0-0-0-0-|-0-0-0-0-|-2-2-2-2-|-2-2-2-2-||o-0-0-0-0-|-2-2-2-2-|-2-2-2-2-|
E|-0-0-0-0-|-0-0-0-0-|-2-2-2-2-|-2-2-2-2-| |--0-0-0-0-|-2-2-2-2-|-0-0-0-0-|


                  2.
  Q  Q  Q  Q      Q  Q  Q  Q    Q  Q  Q  Q
E|-4--4--4--4---| |-4--4--4--4--|-4--4--4--4--|
B|-4--4--4--4--o| |-4--4--4--4--|-5--5--5--5--|
G|-4--4--4--4---| |-4--4--4--4--|-6--6--6--6--|
D|-6--6--6--6---| |-6--6--6--6--|-6--6--6--6--|
A|-6--6--6--6--o| |-6--6--6--6--|-4--4--4--4--|
E|-4--4--4--4---| |-4--4--4--4--|E|-----------|--|

  Q  Q  Q  Q    Q  Q  Q  Q    Q  Q  Q  Q    Q  Q  Q  Q
E|-0--0--0--0--|-2--2--2--2--|-0--0--0--0--|-4--4--4--4--|
B|-2--2--2--2--|-4--4--4--4--|-0--0--0--0--|-4--4--4--4--|
G|-2--2--2--2--|-4--4--4--4--|-1--1--1--1--|-4--4--4--4--|
D|-2--2--2--2--|-4--4--4--4--|-2--2--2--2--|-6--6--6--6--|
A|-0--0--0--0--|-2--2--2--2--|-2--2--2--2--|-6--6--6--6--|
E|-0--0--0--0--|-2--2--2--2--|-0--0--0--0--|-4--4--4--4--|

  Q Q Q Q   Q Q Q Q   Q Q Q Q   Q Q Q Q
E|-0-0-0-0-|-2-2-2-2-|-4-4-4-4-|-4-4-4-4-|----|
B|-2-2-2-2-|-4-4-4-4-|-5-5-5-5-|-5-5-5-5-|----|
G|-2-2-2-2-|-4-4-4-4-|-6-6-6-6-|-6-6-6-6-|----|
D|-2-2-2-2-|-4-4-4-4-|-6-6-6-6-|-6-6-6-6-|----|
A|-0-0-0-0-|-2-2-2-2-|-4-4-4-4-|-4-4-4-4-|----|
E|-0-0-0-0-|-2-2-2-2-|-4-4-4-4-|-4-4-4-4-|----|


  Em         C           D          Bm
   Q Q Q Q     H.    Q    Q Q Q Q    H.    Q
E|-^0-----7-|-^-8-------|-^5-----5-|-^7-------|
B|-^0-------|-^-8----12-|-^7---7---|-^7----10-|
G|-^0---0---|-^-9-------|-^7-7-----|-^7-------|
D|----2-----|-^10-------|----------|----------|
A|-^2-------|E|-----------||-^5-------|-^9-------|
E|----------|E|-----------||----------|----------|
   H   H                  H   H


  Am7                   Bm
   Q Q Q Q   Q Q Q Q     Q Q Q Q   Q Q Q Q
E|-^3-------|----------|-^2-------|---------|
B|-^1---1---|----------|-^3-------|-3-------|
G|-^2-2---2-|-----2----|-^4---4---|-----4---|
D|-^2-------|---2---2--|----4---4-|---4---4-|
A|----------|-0--------|-^2-------|-2-------|
E|----------|----------|----------|---------|
   H   H                 H   H     H   H


   Q Q Q Q     H  Q   Q     H   Q  Q
E|-^0-----7-|-^-8--------|-^10--------|
B|-^0-------|-^-8-----12-|-^10-----13-|
G|-^0---0---|-^-9--------|-^11--------|
D|----2-----|-^10-10-----|-^12--12----|
A|-^2-------|E|-----------|-|E|-----------|-|
E|----------|E|-----------|-|E|-----------|-|
   H   H


   Q Q  Q Q    Q Q Q Q   Q Q Q Q    Q Q Q Q
E|-^7--------|-^3-------|----------|-2----------|
B|-^7---10---|-^1---1---|----------|-4---4------|
G|-^7--------|-^2-2---2-|-----2----|-4---4------|
D|E|-----------||-^2-------|---2---2--|---4---4----|
A|-^9-9----9-|----------|-0--------|-2----------|
E|E|-----------||----------|----------|E|-----------|-|
   Q H    Q    H   H


              C         D         G       Bm          C         D
  Q Q Q Q     Q Q Q Q   Q Q Q Q   Q Q Q Q   Q Q Q Q   Q Q Q Q   Q Q Q Q
E|---------| |--0-0-0-0-|-2-2-2-2-|-3-3-3-3-|-2-2-2-2-|-0-0-0-0-|-2-2-2-2---|
B|-4---4---| |o-1-1-1-1-|-3-3-3-3-|-0-0-0-0-|-3-3-3-3-|-1-1-1-1-|-3-3-3-3---|
G|-----4---| |--0-0-0-0-|-2-2-2-2-|-0-0-0-0-|-4-4-4-4-|-0-0-0-0-|-2-2-2-2---|
D|---------| |--2-2-2-2-|-0-0-0-0-|-0-0-0-0-|-4-4-4-4-|-2-2-2-2-|-0-0-0-0---|
A|-2-2---2-| |o-3-3-3-3-|---------|-2-2-2-2-|-2-2-2-2-|-3-3-3-3-|E|-----------||
E|---------| |--0-0-0-0-|---------|-3-3-3-3-|---------|-0-0-0-0-|E|-----------||


  1.                     2.90
  Bm        Em           Em
  Q Q Q Q   Q Q Q Q       H. Q    Q Q E E E E   E Q. H
E|-2-2-2-2-|-0-0-0-0--| |--^0----|-^0E|-----------||---0-------*|
B|-3-3-3-3-|-0-0-0-0-o| |--^0----|-^0E|-----------||-0---------*|
G|-4-4-4-4-|-0-0-0-0--| |--^0----|----0-------0-|E|-----------|*|
D|-4-4-4-4-|-2-2-2-2--| |--^2--2-|----------2---|E|-----------|*|
A|-2-2-2-2-|-2-2-2-2-o| |--^2----|--------2-----|E|-----------|*|
E|---------|-0-0-0-0--| |--^0----|------0-------|E|-----------|*|

Duration Legend
E|E|-----------|----|
W - whole; H - half; Q - quarter; E - 8th; S - 16th; T - 32nd; X - 64th; a - acciaccatura
+ - note tied to previous; . - note dotted; .. - note double dotted
Uncapitalized letters represent notes that are staccato (1/2 duration)
Irregular groupings are notated above the duration line
Duration letters will always appear directly above the note/fret number it represents the
duration for.  Duration letters with no fret number below them represent rests.  Multi-
bar rests are notated in the form Wxn, where n is the number of bars to rest for.  Low
melody durations appear below the staff

Tablature Legend
E|E|-----------|----|-
 h   - hammer-on
 p   - pull-off
 b   - bend
 pb  - pre-bend
 r   - bend release (if no number after the r, then release immediately)
 /\  - slide into or out of (from/to "nowhere")
 s   - legato slide
 S   - shift slide
 - natural harmonic
[n]  - artificial harmonic
n(n) - tapped harmonic
 ~   - vibrato
 tr  - trill
 T   - tap
 TP  - trem. picking
 PM  - palm muting
\n/  - tremolo bar dip; n = amount to dip
 \n  - tremolo bar down
 n/  - tremolo bar up
/n\  - tremolo bar inverted dip
 =   - hold bend; also acts as connecting device for hammers/pulls
 <> - volume swell (louder/softer)
 x   - on rhythm slash represents muted slash
 o   - on rhythm slash represents single note slash

Misc Legend
E|-----------|
 |  - bar
||  - double bar
||o - repeat start
o|| - repeat end
*|  - double bar (ending)
 :  - bar (freetime)
 $  - Segno
 &  - Coda
Tempo markers -  = BPM(8/16=s8/s16), where s8 = swing 8ths, s16 = swing 16ths
Outros vídeos desta música
      • ½ Tom
      • Am
      • Bbm
      • Bm
      • Cm
      • C#m
      • Dm
      • Ebm
      • Em
      • Fm
      • F#m
      • Gm
      • G#m
    • Adicionar à lista

    Afinação da cifra

    Afinador online

      0 comentários

      Ver todos os comentários

      Entre para o Cifra Club PRO

      Tenha acesso a benefícios exclusivos no App e no Site

      • Chega de anúncios

      • Mais recursos no app do Afinador

      • Atendimento Prioritário

      • Aumente seu limite de lista

      • Ajude a produzir mais conteúdo

      Cifra Club Pro

      Aproveite o Cifra Club com benefícios exclusivos e sem anúncios
      Cifra Club Pro
      Aproveite o Cifra Club com benefícios exclusivos e sem anúncios
      OK