Cifra Club

Aprenda

Despedida (part. Pacheco)

Wesley Safadão

Cifra: Original (violão e guitarra)
tom: A
E|--------------------------------------------------------0---|
B|--0h2~---2-3-5-5/7-5~---3/5-3-2-0-2/3~---3/5-3-2-0------3---|
G|---------------------------------------------------2~---2---|
D|--------------------------------------------------------0---|
A|------------------------------------------------------------|
E|------------------------------------------------------------|

 A                                              E
Eu entro no quarto e vejo sua mala fechada no chão
                                   F#m
E no guarda roupa um vestido de solidão
                   D9
Doeu demais meu coração
        A                                        E
E na geladeira um bilhete dizendo que só vai voltar
                                        F#m
Pra buscar as coisas que não deu pra levar
                                       D9
E se for sair, deixa a chave no mesmo lugar

         A9
E na despedida
Como é que eu vou beijar o seu rosto
                       E
Se eu já beijei sua boca?
Como é que eu vou te abraçar vestida
                     F#m
Se eu já te abracei sem roupa?
                                                  D
Como é que eu vou abrir aquela porta e te deixar sair?
                     A9
Como é que eu vou dividir
                                             E
Um corpo que era inteiro, exclusivo, só pra mim?

     D9   A
E|--------------------------------------------------------0---|
B|--0h2~---2-3-5-5/7-5~---3/5-3-2-0-2/3~---3/5-3-2-0------3---|
G|---------------------------------------------------2~---2---|
D|--------------------------------------------------------0---|
A|------------------------------------------------------------|
E|------------------------------------------------------------|

 A                                              E
Eu entro no quarto e vejo sua mala fechada no chão
                                   F#m
E no guarda roupa um vestido de solidão
                   D9
Doeu demais meu coração
        A                                        E
E na geladeira um bilhete dizendo que só vai voltar
                                        F#m
Pra buscar as coisas que não deu pra levar
                                       D9
E se for sair, deixa a chave no mesmo lugar

         A9
E na despedida
Como é que eu vou beijar o seu rosto
                       E
Se eu já beijei sua boca?
Como é que eu vou te abraçar vestida
                     F#m
Se eu já te abracei sem roupa?
                                                  D
Como é que eu vou abrir aquela porta e te deixar sair?
                     A9
Como é que eu vou dividir
                                             E
Um corpo que era inteiro, exclusivo, só pra mim?

  D9   A
Ôôô ôôô, ôôô
E                                 F#m
Ainda não tô preparado pra me despedir
Composição de Cabeção do Forró / Conde Macedo / JOTA REIS / Neto Barros / RANIERE MAZILLE / Zé Hilton
Colaboração e revisão:
  • Davi França
1.591 exibições
  • Simplificar cifra
    • ½ Tom
    • A
    • Bb
    • B
    • C
    • Db
    • D
    • Eb
    • E
    • F
    • F#
    • G
    • Ab
  • Adicionar à lista

    0 comentários

    Ver todos os comentários

    Conseguiu tocar?

    0 Tocaram 0 Ainda não

    Grave um vídeo tocando Despedida (part. Pacheco) e nos envie!

    00:00 / 00:00
    Outros vídeos desta música
    Repetir Qualidade Automático
    Outros vídeos desta música
    00:00 / 00:00
    Automático

    Cifra Club Pro

    Aproveite o Cifra Club com benefícios exclusivos e sem anúncios
    Cifra Club Pro
    Aproveite o Cifra Club com benefícios exclusivos e sem anúncios
    OK