Cifra Club

When The Children Cry

White Lion

Cifra: Principal
exibições 13.305
Tom: G
INTRO:

12-------12-------10-------8---7---10-------8-------7-------3---2---0-------0
---0---0----0---0----0---0---0---0----0---0---0---0---0---0---0---0---0---0--
-----0--------0--------0----------------0-------0-------0---------------0----
-----------------------------------------------------------------------------
-----------------------------------------------------------------------------
-----------------------------------------------------------------------------

12-------10-------8---7---10-------8-------7---------------------------------
---0---0----0---0---0---0----0---0---0---0---0---0--0-3----------------------
-----0--------0----------------0-------0-------0----0-4----------------------
-----------------------------------------------------------------------------
-----------------------------------------------------------------------------
-----------------------------------------------------------------------------

CHORUS/BRIDGE1:

---------------------2------0---------0---------------------------------2----
-----------0---3-------3----1-----1h3-----1-------------------0---3-------3--
-------0---------4-------4--0---------------0-------------0---------4-------4
---4-----4---------4------------2-------------2-------4-----4---------4------
-----2-------2----------------3-------------------------2-------2------------
-0--------------------------------------3-------3-2-0------------------------

                 1ast time       
                @*A*   @2nd Time          
----0---------0--2-----|---2h3p2p0---5------10-------------------------------
-3--1-----1h3----3-3---|-----------3---7----10--#7---------------------------
----0---0--------2--2--|-----------------7------#7---------------------------
------2----------------|-----------------------------------------------------
-----------------------|-----------------------------------------------------
-----------------------|-----------------------------------------------------

VERSE:

--------------------------------------------------2------0-----------0-------
-0-------0-1------3-------3-----------------3-------3----1-------1-3---------
---0------------2---2---2---0-------0-2-0-----2-------2--0-0---0-------------
-----0--------0-------0-------2---2-------4-----4------------2---------------
-------2------------------------2--------------------------------------------
-----------------------------------------------------------------------3-----


                              @*B*
-----------------------2--------2h3p2p0--------------------------------------
-1-------------------0---3---3----------3------------------------------------
---0-------------0---------2-------------------------------------------------
-----2-------4-----4---------------------------------------------------------
---------------2-------------------------------------------------------------
-------3-2-0-----------------------------------------------------------------

BRIDGE2:

-0-------0-------------2-------------------------2--------0---------0--------
---1-------1-----3-------3---------------0---3-----3---3--1-1---1-3----------
-----0-------0-----2-------2---------0---------4-----4----0---0--------------
-------2-------4-----4-----------4-----4-------------------------------------
-----------------------------------2-------2---------------------------------
-----------------------------3-0--------------------------------------3------


                              @*B*
-----------------------2-------3-------2-------------------------------------
-1-------------------0---3-------3-------------------------------------------
---0-------------0---------2-------2-----------------------------------------
-----2-------4-----4---------0-------0---------------------------------------
---------------2-------------------------------------------------------------
-------3-2-0-----------------------------------------------------------------

RIFF A:                            RIFF B:     RIFF C:

-2-------3-------2-------3--------|-3p2------|-------------------------------
-3-3---3---3---3---3---3---3---3--|-----3----|-------------------------------
-2---2-------2-------2-------2----|-------2--|-------------------------------
----------------------------------|----------|-------------------------------
----------------------------------|----------|-------------------------------
----------------------------------|----------|--3-2--------------------------

SOLO:
    full                        (1-----t---)              1       1/2
-------------------------------------------------12-------17^-17--19^-19-19--
----15^--17-13-15-12-------------15^---17---15------13-12--------------------
-12------------------14-12-11------------------------------------------------
-12---------------------------12---------------------------------------------
-----------------------------------------------------------------------------
-----------------------------------------------------------------------------


 1                     1                 1                     1
-20^-20-20-19-20-19----------------------------------------------------------
--------------------20-20^-(20)-19-17----------------------------------------
--------------------------------------19-19^-19p17p16-17p16-14-(14)^(14)p12--
-----------------------------------------------------------------------------
-----------------------------------------------------------------------------
-----------------------------------------------------------------------------


 1
-----------------------------------------------------------------------------
-15^-15\--dive slowly--------------------------------------------------------
--------\--w/tremelo---------------------------------------------------------
---------\--bar--------------------------------------------------------------
----------\------------------------------------------------------------------
-----------------------------------------------------------------------------


SONG FLOW:

        Intro
        Bridge1
        Verse 2X
        Bridge2
        Chorus
        Verse
        Verse w/Riff B
        Bridge2
        Chorus w/Riff A
        Verse          --\___ underneath
        Verse w/Riff B --/    guitar solo
        Bridge2 w/Riff B
        Bridge2
        Chorus to 2. w/Riff C
        Chorus
Acordes para:
    Composição: Mike Tramp / Vito BrattaColaboração e revisão:
    • Natália Trevisan

    0 comentários

      mostrar mais comentários

      Conseguiu tocar?

      2tocaram0ainda não

      Grave um vídeo tocando When The Children Cry e mande pra gente!

      00:00 / 00:00
      outros vídeos desta música
      repetirqualidadeautomática
      Outro vídeos desta música
        00:00 / 00:00
        automática
        OK