Cifra Club

Black Sunshine

White Zombie

Cifra: Principal (violão e guitarra)
Selo Cifra Club: esta cifra foi revisada para atender aos critérios oficiais da nossa Equipe de Qualidade.
tom: C

E|-----------------------------------------------------|
B|-------------------------------------8---------------|
G|-9---12-------9---3--------------9---7--------9---12-|
D|-9---12-------9---3--------------9---6--------9---12-|
A|-7---10-------7---1--------------7---7--------7---10-|
E|-----------------------------------------------------|

E|----------------------------|
B|----------------------------|
G|----------------------------|
D|------------------------5---|
A|-0-3-5---0-5-6--0-5-6-7---7-|
E|----------------------------|

E|-----------------------------------------------------|
B|-----8-------------------------------8---------------|
G|-9---7--------9---3--------------9---7--------9---12-|
D|-9---6--------9---3--------------9---6--------9---12-|
A|-7---7--------7---1--------------7---7--------7---10-|
E|-----------------------------------------------------|

E|--------------------------------|
B|--------------------------------|
G|--------------------------------|
D|------------------------5-------|
A|-0-3-5---0-5-6--0-5-6-7---7-----|
E|--------------------------------|

E|-----------------------------------------------------|
B|-----8-----------------------------------------------|
G|-9---7--------9---3--------------9--10--------9---12-|
D|-9---6--------9---3--------------9--10--------9---12-|
A|-7---7--------7---1--------------7---8--------7---10-|
E|-----------------------------------------------------|

E|--------------------------------|
B|--------------------------------|
G|--------------------------------|
D|------------------------5-------|
A|-0-3-5---0-5-6--0-5-6-7---7-----|
E|--------------------------------|

E|----------------------------------------|
B|----------------------------------------|
G|----------------------------------------|
D|----------------------------------------|
A|--------------------------------3-4-5-6-|
E|-3-2-0--3-2-0--3-2-0--3-2-0-----1-2-3-4-|

E|--------------------------------------------------------------------------|
B|--------------------------------------------------------------------------|
G|--------------------------------------------------------------------------|
D|-----7-----9-----7-----9---------------------7-----9-----7-----9----------|
A|-----5-----7-----5-----7------8/9------------5-----7-----5-----7------4/5-|
E|-0-0---0-0---0-0---0-0---0-0--6/7--------0-0---0-0---0-0---0-0---0-0--2/3-|

E|-------------------------------------------------------------------|
B|--------------------------------8------------------------8---8---8-|
G|--------------------------------7------------------------7---7---7-|
D|--------------------------------6------------------------6---6---6-|
A|--------------------------------7------------------------7---7---7-|
E|-0-0-0-0-0-0-0-0-0-0-0-0---0-0^0---------0-0-0-0-0-0-0-0---0---0---|

E|--------------------------------------------------------------------------|
B|--------------------------------------------------------------------------|
G|--------------------------------------------------------------------------|
D|-----7-----9-----7-----9---------------------7-----9-----7-----9----------|
A|-----5-----7-----5-----7------8/9------------5-----7-----5-----7------4/5-|
E|-0-0---0-0---0-0---0-0---0-0--6/7--------0-0---0-0---0-0---0-0---0-0--2/3-|

E|-------------------------------------------------------------------|
B|--------------------------------8------------------------8---8---8-|
G|--------------------------------7------------------------7---7---7-|
D|--------------------------------6------------------------6---6---6-|
A|--------------------------------7------------------------7---7---7-|
E|-0-0-0-0-0-0-0-0-0-0-0-0---0-0^0---------0-0-0-0-0-0-0-0---0---0---|

E|-----------------------------|
B|-----------------------------|
G|-----------------------------|
D|-----------------------------|
A|-0-3-5---0-3-5--0-3-5--0-5b7-|
E|-----------------------------|

E|---------------------------------|
B|---------------------------------|
G|---------------------------------|
D|---------------------------------|
A|---------------------------------|
E|-0-3-5-0-3-5-0-3-5-0-6-5---------|

E|----------------------------|
B|----------------------------|
G|----------------------------|
D|------------------------5---|
A|-0-3-5---0-5-6--0-5-6-7---7-|
E|----------------------------|

E|--------------------------------------------|
B|--------------------------------------------|
G|--------------------------------------------|
D|-----10--9----------------------------10--9-|
A|-2----8--7----------------------3-2----8--7-|
E|-0------------------------------1-0---------|

E|--------------------------------------------------------------|
B|--------------------------------------------------------------|
G|--------------------------------------------------------------|
D|--------------------------------------------------------------|
A|--------------------------2---------------------------2---3-4-|
E|-0-0-0-0-0-0-0-0-0-0-0-0-1-1-0-0-0-0-0-0-0-0-0-0-0-0-1-0-1-2--|

E|------------------------------------------------------------------|
B|------------------------------------------------------------------|
G|------------------------------------------------------------------|
D|------------------------------------------------------------------|
A|--------------------------2--------------------------/8--7-6------|
E|-0-0-0-0-0-0-0-0-0-0-0-0-1-1-0-0-0-0-0-0-0-0-0-0-0-0---7-6---6-5~-|

E|-------------------------------------------------------------------------|
B|-------------------------------------------------------------------------|
G|----------------------------------------------------5--------------------|
D|----------------------------------------------------5----3--3---2--------|
A|--------------------------2-------------------------3----3-----------3-2-|
E|-0-0-0-0-0-0-0-0-0-0-0-0-1-1-0-0-0-0-0-0-0-0-0-0-0-0-----1-0-0-0-0-0-1-0-|
Outros vídeos desta música
    5.652 exibições
      • ½ Tom
      • A
      • Bb
      • B
      • C
      • Db
      • D
      • Eb
      • E
      • F
      • F#
      • G
      • Ab
    • Adicionar à lista

    Afinação da cifra

    Afinador online

      0 comentários

      Ver todos os comentários

      Entre para o Cifra Club PRO

      Tenha acesso a benefícios exclusivos no App e no Site

      • Chega de anúncios

      • Badges exclusivas

      • Mais recursos no app do Afinador

      • Atendimento Prioritário

      • Aumente seu limite de lista

      • Ajude a produzir mais conteúdo

      Cifra Club Pro

      Aproveite o Cifra Club com benefícios exclusivos e sem anúncios
      Cifra Club Pro
      Aproveite o Cifra Club com benefícios exclusivos e sem anúncios
      OK