Cifra Club

Demonspeed

White Zombie

Cifra: Principal (violão e guitarra)
Selo Cifra Club: esta cifra foi revisada para atender aos critérios oficiais da nossa Equipe de Qualidade.
tom: C
=================================================================================================
Album: Make Them Die Slowly (1989)

Tabbed by Chris Rezendes (*)
Date started tab: 5-29-02
Date finished tab: 7-20-02

Tuning: Standard

Notation Key
v: vibrato
t: tremolo bar
^: bend
.: palm mute
~: trill
p: pull-off
h: hammer-on
x: ghost note
/: slide up
\: slide down

=================================================================================================

Intro x1
e|-------------------------|----------------------------|
B|-------------------------|----------------------------|
G|-------------------------|----------------------------|
D|--5-7----7---5-7---------|--5-7----7---5-7------------|
A|--3-5----5---3-5----6-5--|--3-5----5---3-5---6-5---4--|
E|--------------------4-3--|-------------------4-3---2--|

Fig. 1 x4
e|---------------------------|---------------------|
B|---------------------------|---------------------|
G|---------------------------|---------------------|
D|------------2--------------|------------2-----4--|
A|--4-----3-4---4-0-2h3p2----|--4-----3-4---4-0-2--|
E|--2-2-2-----------------2--|--2-2-2--------------|
      . .                         . .

Fig. 2 x2
e|-----------------------------------|-------------------------------|
B|-----------------------------------|----------------------------2--|
G|-----------------------------------|------------------------2-1----|
D|-----------------------------------|--------------------4-3--------|
A|--2---------------5/4---5/4---5/4--|--2-------------5-4------------|
E|--0-0-0-0-0-0-0-0-3/2-0-3/2-0-3/2--|--0-0-0-0-0-5-4----------------|
      . . . . . . .     .     .           . . . . 

e|-----------------------------------|------------------------|
B|-----------------------------------|------------------------|
G|-----------------------------------|------------------------|
D|-----------------------------------|----------------7-9-10--|
A|--2---------------5/4---5/4---5/4--|--2-------------5-7--8--|
E|--0-0-0-0-0-0-0-0-3/2-0-3/2-0-3/2--|--0-0-0-0-0-0-0---------|
      . . . . . . .     .     .           . . . . . .

Fig. 3 x1
e|-----|-----|-------|
B|-----|-----|-------|
G|-----|-----|-------|
D|--5--|--7--|-------|
A|--3--|--5--|--5-6--|
E|-----|-----|--3-4--|

Repeat Fig. 2 x2

Fig. 4 x8
e|-----|--------|
B|-----|--------|
G|-----|--------|
D|--4--|--5--7--|
A|--2--|--3--5--|
E|-----|--------|

Fig. 5 x1
e|---------|---------|--------|-------|
B|---------|---------|--------|-------|
G|---------|---------|--------|-------|
D|--12-11--|--11-10--|--10-9--|--9-8--|
A|--10--9--|---9--8--|---8-7--|--7-6--|
E|---------|---------|--------|-------|

Repeat Fig. 2 x2
Repeat Fig. 4 x8

Fig. 6 x1
e|-----------------------------------------|
B|-----------------------------------------|
G|-----------------------------------------|
D|-----------------------------------------|
A|--9-------9-8-7-------7-6-5-------5-4-3--|
E|--7-00000-7-6-5-00000-5-4-3-00000-3-2-1--|

Fig. 7 x1
e|---------------------------------------------|
B|---------------------------------------------|
G|---------------------------------------------|
D|------------4/5-----------4/5-----------4/5--|
A|------7-----2/3-----7-----2/3-----7-----2/3--|
E|--000-5-000-----000-5-000-----000-5-000------|

Fig. 8 x5
e|-------------------------------------------------------------|
B|-------------------------------------------------------------|
G|-------------------------------------------------------------|
D|------------4/5-----------4/5-----------4/5---4/5------------|
A|------7-----2/3-----7-----2/3-----7-----2/3---2/3---5\4-3/4--|
E|--000-5-000-----000-5-000-----000-5-000-----0-----0-3\2-1/2--|

Fig. 9 x1
e|--------------------------|
B|--------------------------|
G|--------------------------|
D|--------------------------|
A|--2----2----2----2-2-2-2--|
E|--0----0----0----0-0-0-0--|

Repeat Fig. 8 x4
Repeat Fig. 2 x1

Riff 1 x1
e|-------------------|
B|-------------------|
G|-------------------|
D|--5-4-3-2-1-0------|
A|--------------4-3--|
E|-------------------|

Riff 2 x4
e|------------------------------|
B|------------------------------|
G|------------------------------|
D|-----------1-2-----2-1---1-0--|
A|--2--0-1-2--------------------|
E|--0-------------0------0------|

Riff 3 x2
e|-------------------------------|
B|-------------------------------|
G|-------------------------------|
D|----5-4-3-2---2-1-0------------|
A|--2---------2-------2-5-4-3-0--|
E|-------------------------------|

Fig. 9 x1
e|-----|--------|
B|-----|--------|
G|-----|--------|
D|--4--|--5--4--|
A|--2--|--3--2--|
E|-----|--------|

Repeat Riff 2 x4
Repeat Riff 3 x2
Repeat Fig. 9 x1
Repeat Riff 2 x4
Repeat Riff 3 x2
Repeat Fig. 9 x1
Repeat Riff 2 x3

Fig. 10 x1
e|------------------------------------------------|
B|------------------------------------------------|
G|------------------------------------------------|
D|-----------1-2--7--9--10------------------------|
A|--2--0-1-2------5--7---8-----4----5-----4----5--|
E|--0-----------------------0012-0023--0012-0023--|

Fig. 11 x8
e|-------------------------------------|
B|-------------------------------------|
G|-------------------------------------|
D|-------------------------------------|
A|------4-5-----4-5---3-2-1----4----5--|
E|--0-0-2-3-0-0-2-3-0-------0012-0023--|

Outro x1
e|------------------------|----------------|
B|------------------------|----------------|
G|------------------------|----------------|
D|------------------------|----------------|
A|----3-2-1----4----5--2--|-----4----5--2--|
E|--0-------0012-0023--0--|--0012-0023--0--|
Outros vídeos desta música
    254 exibições
      • ½ Tom
      • A
      • Bb
      • B
      • C
      • Db
      • D
      • Eb
      • E
      • F
      • F#
      • G
      • Ab
    • Adicionar à lista

    Afinação da cifra

    Afinador online

      0 comentários

      Ver todos os comentários

      Entre para o Cifra Club PRO

      Tenha acesso a benefícios exclusivos no App e no Site

      • Chega de anúncios

      • Badges exclusivas

      • Mais recursos no app do Afinador

      • Atendimento Prioritário

      • Aumente seu limite de lista

      • Ajude a produzir mais conteúdo

      Cifra Club Pro

      Aproveite o Cifra Club com benefícios exclusivos e sem anúncios
      Cifra Club Pro
      Aproveite o Cifra Club com benefícios exclusivos e sem anúncios
      OK