Cifra Club

More Human Than Human

White Zombie

Cifra: Principal (violão e guitarra)
Selo Cifra Club: esta cifra foi revisada para atender aos critérios oficiais da nossa Equipe de Qualidade.
tom: F#
------------------------
------------------------
------------------------
-----4--4----------4--4-
-----56--6----------6--6-
------------------------

As partes de acorde da musica so ficam no power chord C#


Solo 4 vezes
----------------------------------------12--12
3/10\3------3/12\3------3/9\3------3/10-------
----------------------------------------------
----------------------------------------------
----------------------------------------------
----------------------------------------------

Na ultima vez faça o slide final que começa na casa 3 da corda B até a 12 bem lentamente

REFRÃO
-------------------------------------
-------------------------------------
-------------------------------------
----------------7--7-xxx--7--7--xxx--
----------------5--5-xxx--7--7--xxx--
-------------------------------------

Outros vídeos desta música
    1.783 exibições
      • ½ Tom
      • A
      • Bb
      • B
      • C
      • Db
      • D
      • Eb
      • E
      • F
      • F#
      • G
      • Ab
    • Adicionar à lista

    Afinação da cifra

    Afinador online

      0 comentários

      Ver todos os comentários

      Entre para o Cifra Club PRO

      Tenha acesso a benefícios exclusivos no App e no Site

      • Chega de anúncios

      • Mais recursos no app do Afinador

      • Atendimento Prioritário

      • Aumente seu limite de lista

      • Ajude a produzir mais conteúdo

      Cifra Club Pro

      Aproveite o Cifra Club com benefícios exclusivos e sem anúncios
      Cifra Club Pro
      Aproveite o Cifra Club com benefícios exclusivos e sem anúncios
      OK