Cifra Club

Thrust

White Zombie

Cifra: Principal (violão e guitarra)
Selo Cifra Club: esta cifra foi revisada para atender aos critérios oficiais da nossa Equipe de Qualidade.
tom: E
intro
E||------------------------------------------------------||---------------------|
B||*----------------------------------------------------*||---------------------|
G||------------------------------------------------------||-----4---------------|
D||----7--6--5-------------------------------------------||-----4---------------|
A||*---5--4--3---7-----7----------7-------7-------------*||-----2---------------|
E||----------------6-0---6-0-6\5----6-0-----6-0--6\5-----||-----2---------------|

E|-----------------------------------------------------------------------------------------|
B|-----------------------------------------------------------------------------------------|
G|------------------------------------------------------------------------------------7--7-|
D|--9---9---------------7-9---9---9--x-7-9-x-10-9---9---9-------------7-9---9---9-x-x-7--7-|
A|--7---7-------5^7-----5-7---7---7--x-5-7-x--8-7---7---7-----5^7-----5-7---7---7-x-x-5--5-|
E|----0----5^7------5^7---------0----x-----x----------0---5^7-----5^7---------0---x-x-5--5-|

E|-----------------------------------------------------------------------------------------|
B|-----------------------------------------------------------------------------------------|
G|------------------------------------------------------------------------------------7--5-|
D|--9---9---------------7-9---9---9--x-7-9-x-10-9---9---9-------------7-9---9---9-x-x-7--5-|
A|--7---7-------5^7-----5-7---7---7--x-5-7-x--8-7---7---7-----5^7-----5-7---7---7-x-x-5--3-|
E|----0----5^7------5^7---------0----x-----x----------0---5^7-----5^7---------0---x-x-5--3-|

verse
E||----------------------------------------------------------------------------------------||
B||*--------------------------------------------------------------------------------------*||
G||----------------------------------------------------------------------------------------||
D||---PM--9-------------7-9-----9-------------7------9-------------7-9---------------------||
A||*--===-7-===========-5-7-===-7-===========-5--===-7-===========-5-7-===-7-=====-8-=-8--*||
E||---0-0---0-0-0-0-0-0-----0-0---0-0-0-0-0-0----0-0---0-0-0-0-0-0-----5-5-5-5-5-6-6-6-6---||

Chorus, Gtr 1
E|-----------------------------------------------------------------------------------------|
B|-----------------------------------------------------------------------------------------|
G|------------------------------------------------------------------------------------7--7-|
D|--9---9---------------7-9---9---9--x-7-9-x-10-9---9---9-------------7-9---9---9-x-x-7--7-|
A|--7---7-------5^7-----5-7---7---7--x-5-7-x--8-7---7---7-----5^7-----5-7---7---7-x-x-5--5-|
E|----0----5^7------5^7---------0----x-----x----------0---5^7-----5^7---------0---x-x-5--5-|

Chorus, Gtr 1
E|-----------------------------------------------------------------------------------------|
B|-----------------------------------------------------------------------------------------|
G|------------------------------------------------------------------------------------7--5-|
D|--9---9---------------7-9---9---9--x-7-9-x-10-9---9---9-------------7-9---9---9-x-x-7--5-|
A|--7---7-------5^7-----5-7---7---7--x-5-7-x--8-7---7---7-----5^7-----5-7---7---7-x-x-5--3-|
E|----0----5^7------5^7---------0----x-----x----------0---5^7-----5^7---------0---x-x-5--3-|

Chorus, Gtr 2
E|--12---12-----12---12---13-----12---12----12---12---12---12-------|
B|--15^b-15^b---15^b-15^b-17^b---15^b-15^b--15^b-15^b-15^b-15^b-----|
G|------------------------------------------------------------------|
D|------------------------------------------------------------------|
A|------------------------------------------------------------------|
E|------------------------------------------------------------------|

Chorus, Gtr 2
E|--12---12-----12---12---13-----12---12----12---12----10---8-------|
B|--15^b-15^b---15^b-15^b-17^b---15^b-15^b--15^b-15^b--13b-11^b-----|
G|------------------------------------------------------------------|
D|------------------------------------------------------------------|
A|------------------------------------------------------------------|
E|------------------------------------------------------------------|

verse
E||----------------------------------------------------------------------------------------||
B||*--------------------------------------------------------------------------------------*||
G||----------------------------------------------------------------------------------------||
D||---PM--9-------------7-9-----9-------------7------9-------------7-9---------------------||
A||*--===-7-===========-5-7-===-7-===========-5--===-7-===========-5-7-===-7-=====-8-=-8--*||
E||---0-0---0-0-0-0-0-0-----0-0---0-0-0-0-0-0----0-0---0-0-0-0-0-0-----5-5-5-5-5-6-6-6-6---||

Chorus, Gtr 1
E|-----------------------------------------------------------------------------------------|
B|-----------------------------------------------------------------------------------------|
G|------------------------------------------------------------------------------------7--7-|
D|--9---9---------------7-9---9---9--x-7-9-x-10-9---9---9-------------7-9---9---9-x-x-7--7-|
A|--7---7-------5^7-----5-7---7---7--x-5-7-x--8-7---7---7-----5^7-----5-7---7---7-x-x-5--5-|
E|----0----5^7------5^7---------0----x-----x----------0---5^7-----5^7---------0---x-x-5--5-|

Chorus, Gtr 1
E|-----------------------------------------------------------------------------------------|
B|-----------------------------------------------------------------------------------------|
G|------------------------------------------------------------------------------------7--5-|
D|--9---9---------------7-9---9---9--x-7-9-x-10-9---9---9-------------7-9---9---9-x-x-7--5-|
A|--7---7-------5^7-----5-7---7---7--x-5-7-x--8-7---7---7-----5^7-----5-7---7---7-x-x-5--3-|
E|----0----5^7------5^7---------0----x-----x----------0---5^7-----5^7---------0---x-x-5--3-|

Chorus, Gtr 2
E|--12---12-----12---12---13-----12---12----12---12---12---12-------|
B|--15^b-15^b---15^b-15^b-17^b---15^b-15^b--15^b-15^b-15^b-15^b-----|
G|------------------------------------------------------------------|
D|------------------------------------------------------------------|
A|------------------------------------------------------------------|
E|------------------------------------------------------------------|

Chorus, Gtr 2
E|--12---12-----12---12---13-----12---12----12---12----10---8-------|
B|--15^b-15^b---15^b-15^b-17^b---15^b-15^b--15^b-15^b--13b-11^b-----|
G|------------------------------------------------------------------|
D|------------------------------------------------------------------|
A|------------------------------------------------------------------|
E|------------------------------------------------------------------|

interlude
E||---------------------------------------------------------------||
B||*-------------------------------------------------------------*||
G||---------------------------------7------------5----------------||
D||---------------------------------7-----2------5------3---------||
A||*--4---4-----4---4-----4---4-----5-----2------3------3--------*||
E||---2-0-2-----2-0-2-----2-0-2-----5-----0------3------1---------||

E||---------------------------------------------------------------||
B||*-------------------------------------------------------------*||
G||---------------------------------------------------------------||
D||--PM-------------------------------------------------3---------||
A||*-===========================---=============---===--3--------*||
E||--2-2--2-2--2-2--1-1--1-1-1-1---2-2--2-2--2-2---1-1--1---------||

E|-----------------------------------------------------------------|
B|-----------------------------------------------------------------|
G|------------------------------------------------------| R----------|
D|---PM-------------------------------------------------| E-”YEAH!”--|
A|--===========================---=============---===---S----------|
E|--2-2--2-2--2-2--1-1--1-1-1-1---2-2--2-2--2-2---1-1---T----------|

Bridge “Open the darkness...”
E||-----------------------------------------------------------------|
B||*----------------------------------------------------------------|
G||-----------------------------------------------------------------|
D||--PM-------------------------------------------------3-----------|
A||*-===========================---=============---===--3-----------|
E||--2-2--2-2--2-2--1-1--1-1-1-1---2-2--2-2--2-2---1-1--1-----------|

E|----------------------------------------------------------------| |
B|---------------------------------------------------------------*| |
G|------------------------------------------------------| R---------||
D|---PM-------------------------------------------------| E---------||
A|--===========================---=============---===---S--------*| |
E|--2-2--2-2--2-2--1-1--1-1-1-1---2-2--2-2--2-2---1-1---T---------| |

“Shot through the back-door...”
E|------------------------------------------------------------------|
B|------------------------------------------------------------------|
G|------------------------------------------------------------------|
D|---PM-------------------------------------------------3-----------|
A|---===========================---=============---===--3-----------|
E|---2-2--2-2--2-2--1-1--1-1-1-1---2-2--2-2--2-2---1-1--1-----------|

E|-----------------------------------------------------------------|
B|-----------------------------------------------------------------|
G|----------------------------------7-------------5----------------|
D|---PM-----------------------------7-----2-------5------3---------|
A|--===========================-----5-----2-------3------3---------|
E|--2-2--2-2--2-2--1-1--1-1-1-1-----5-----0-------3------1---------|

E|--------------------------------------------------|
B|--------------------------------------------------|
G|-------------9---8---7---2-2-2--p| m----------------|
D|--4-----4----9---8---7---2-2-2--===---------------|
A|--4-----4----7---6---5---0-0-0--2-2-2--2--3-------|
E|--2-----2----0------------------0-0-0--0--1-------|

E|-----------------------------------------------------------------|
B|-----------------------------------------------------------------|
G|-------------9---8---7---p| m-------2------------------------------|
D|--4-----4----9---8---7---=======--2--=======--2--3---------------|
A|--4-----4----7---6---5---0-0-0-0--0--2-2-2-2--2--3---------------|
E|--2-----2----0-----------------------0-0-0-0--0--1---------------|

E|-----------------------------------------------------------------------------------------|
B|-----------------------------------------------------------------------------------------|
G|-----------------------------------------------------------------------------------------|
D|-PM------4----------4----------4----------4----------9---------9\7---------9---------9\7-|
A|-=======-4--=======-4--=======-4--=======-4--=======-7-=======-7\5-=======-7-=======-7\5-|
E|-0-2-2-2-2--0-2-2-2-2--0-2-2-2-2--0-2-2-2-2--0-0-0-0---0-0-0-0-----0-0-0-0---0-0-0-0-----|

E|-------------------------------------------------------------------------------------------|
B|-------------------------------------------------------------------------------------------|
G|-------------------------------------------------------------------------------------------|
D|-PM------4----------4----------4----------4----------9---------9\7---------9-5-------------|
A|-=======-4--=======-4--=======-4--=======-4--=======-7-=======-7\5-=======-7--7-5--5-------|
E|-0-2-2-2-2--0-2-2-2-2--0-2-2-2-2--0-2-2-2-2--0-0-0-0---0-0-0-0-----0-0-0-0-------7---7-6-6-|

E|-------------------------------------------------------------------------------------------|
B|-------------------------------------------------------------------------------------------|
G|-------------------------------------------------------------------------------------------|
D|-PM------4----------4----------4----------4----------9---------9\7---------9-5-------------|
A|-=======-4--=======-4--=======-4--=======-4--=======-7-=======-7\5-=======-7--7-5--5-------|
E|-0-2-2-2-2--0-2-2-2-2--0-2-2-2-2--0-2-2-2-2--0-0-0-0---0-0-0-0-----0-0-0-0-------7---7-6-6-|

E|-------------------------------------|
B|-------------------------------------|
G|-------------------------------------|
D|--5----------------5-----------------|
A|----7-5---5----------7-5---5---------|
E|--------7---7-6-6--------7---7-6-6---|

verse
E||----------------------------------------------------------------------------------------||
B||*--------------------------------------------------------------------------------------*||
G||----------------------------------------------------------------------------------------||
D||---PM--9-------------7-9-----9-------------7------9-------------7-9---------------------||
A||*--===-7-===========-5-7-===-7-===========-5--===-7-===========-5-7-===-7-=====-8-=-8--*||
E||---0-0---0-0-0-0-0-0-----0-0---0-0-0-0-0-0----0-0---0-0-0-0-0-0-----5-5-5-5-5-6-6-6-6---||

Chorus, Gtr 1
E|-----------------------------------------------------------------------------------------|
B|-----------------------------------------------------------------------------------------|
G|------------------------------------------------------------------------------------7--7-|
D|--9---9---------------7-9---9---9--x-7-9-x-10-9---9---9-------------7-9---9---9-x-x-7--7-|
A|--7---7-------5^7-----5-7---7---7--x-5-7-x--8-7---7---7-----5^7-----5-7---7---7-x-x-5--5-|
E|----0----5^7------5^7---------0----x-----x----------0---5^7-----5^7---------0---x-x-5--5-|

Chorus, Gtr 1
E|-----------------------------------------------------------------------------------------|
B|-----------------------------------------------------------------------------------------|
G|------------------------------------------------------------------------------------7--5-|
D|--9---9---------------7-9---9---9--x-7-9-x-10-9---9---9-------------7-9---9---9-x-x-7--5-|
A|--7---7-------5^7-----5-7---7---7--x-5-7-x--8-7---7---7-----5^7-----5-7---7---7-x-x-5--3-|
E|----0----5^7------5^7---------0----x-----x----------0---5^7-----5^7---------0---x-x-5--3-|

Chorus, Gtr 2
E|--12---12-----12---12---13-----12---12----12---12---12---12-------|
B|--15^b-15^b---15^b-15^b-17^b---15^b-15^b--15^b-15^b-15^b-15^b-----|
G|------------------------------------------------------------------|
D|------------------------------------------------------------------|
A|------------------------------------------------------------------|
E|------------------------------------------------------------------|

Chorus, Gtr 2
E|--12---12-----12---12---13-----12---12----12---12----10---8-------|
B|--15^b-15^b---15^b-15^b-17^b---15^b-15^b--15^b-15^b--13b-11^b-----|
G|------------------------------------------------------------------|
D|------------------------------------------------------------------|
A|------------------------------------------------------------------|
E|------------------------------------------------------------------|

E||--------------------------------------------------||
B||*------------------------------------------------*||
G||--------------------------------------------------||
D||---------------PM---------------------------------||
A||*--5---7---8---===============================---*||
E||---3---5---6---1-0-0-2-0-0-3-0-0-4-0-0-5-0-6-0----||

E|---------------------------------------------------------------------------|
B|---------------------------------------------------------------8-----------|
G|---------------------------------------------------4---3-------7-----------|
D|--------------5---------------5--------------------4---3---3---6-----------|
A|--5---7---8-----7-5---5---------7-5---5------------2---1---3---7-----------|
E|--3---5---6---------7---7-6-5-------7---7-6-5---0--2---1---1---0-----------|
Outros vídeos desta música
    3 exibições
      • ½ Tom
      • A
      • Bb
      • B
      • C
      • Db
      • D
      • Eb
      • E
      • F
      • F#
      • G
      • Ab
    • Adicionar à lista

    Afinação da cifra

    Afinador online

      0 comentários

      Ver todos os comentários

      Entre para o Cifra Club PRO

      Tenha acesso a benefícios exclusivos no App e no Site

      • Chega de anúncios

      • Mais recursos no app do Afinador

      • Atendimento Prioritário

      • Aumente seu limite de lista

      • Ajude a produzir mais conteúdo

      Cifra Club Pro

      Aproveite o Cifra Club com benefícios exclusivos e sem anúncios
      Cifra Club Pro
      Aproveite o Cifra Club com benefícios exclusivos e sem anúncios
      OK