Cifra Club

Here i Go Again

Whitesnake

Cifra: Versão 2 (violão e guitarra)
tom: G
Transcrição por: Marcelo Freak ( Banda La Fayette )


Intro: ( Teclado arranjado para Guitarra.)

    G    D   C                     G  D           C/E

e|--7-----5----3-----2----3---5----7---5---3p2--------------------|
b|--0-----0------0-----------------0---0----------5---------------|
g|--0-----0--------0----0---0------0--------------4---------------|
d|--5------------------------------5---0----------2---------------|
a|--------5----3-----3----------------------------3---------------|
E|------------------------------------------------0---------------|


1ºparte

   G      D    C
e|--7-----5----3------2----3---5------|
b|--0-----0------0--------------------|
g|--0-----0--------0-----0---0--------|     2 Vezes
d|--5---------------------------------|   
a|--------5----3------3---------------|
E|------------------------------------|

    G   D/F# C        Am  D       Am   D
e|--3-----------------8---0-------5----0---------|
b|------3----3-------10---3-------5----3--3/5----|
g|--4---2----0--------9---2-------5----2---------|
d|--0---0----2------------0------------0---------|
a|-----------3---3-2--0-----------0--------------|
E|--3---2-------------------8-7------------------|


Ponte:

    H.N
e|-<12>----0---0--------------3--0----2--------|
b|-<12>--0-----1--1---3---0---1--1----3--------|
g|-<12>0-------2--0---0---0---2--0----2--------|
d|----------------2-------2-----------0--------|
a|-------------0--3-----------0--3-------------|
E|--0-----------------3---0--------------------|

Variação no verso 
|
e|--3---2---3-----2---3---5----7---5----3------2----3---5---|
b|--3---3-----0----------------0---0-------0----------------|
g|--0---2-------0---0---0------0---0---------0-----0---0----|
d|------0----------------------5----------------------------|
a|----------3-----3----------------5----3------3------------|
E|--3-------------------------------------------------------|

e|--3----------------8---0-------5----0-------|
b|-----3----3-------10---3-------5----3-------|
g|--4--2----0--------9---2-------5----2-------|
d|--0--0----2------------0------------0-------|
a|----------3---3-2--0-----------0------------|
E|--3--2-------------------8-7----------------|



Guitarra.


e|-----------------------------------|
b|-----------------------------------|
g|-----------------------x--x--------|
d|---5-5-5-\---7-7-7-\---x--x--------|
a|---3-3-3-\---5-5-5-\---x--x--------|
E|-----------------------------------|


Riff 1:

e|------------------------------------------------|
b|------------------------------------------------|
g|------------------------------------------------|
d|--------5-5--7-7-----------5--7-----------------|   2 Vezes
a|--5-5---3-3--5-5-----------3--5-----------------|
E|--3-3---------------(10)\\----------------------|
-

e|--------------------------------------------|
b|--------------------------------------------|
g|--------------------------------------------|
d|-------5-5--7-7-----------------------------|
a|--5-5--3-3--5-5-----------------------------|
E|--3-3--------------(10)\\--8~-7b(8)r7-------|

e|------------------------------------------|
b|--------------------------10--------------|
g|--------------------------9---------------|
d|--7--------------7~-------7---------------|
a|--7--------------7~--5/7--7---------------|
E|--5------5--5----5~-----------------------|
     P.m|--------|



e|----------------------------------------------------|
b|-------------------------------------------10-------|
g|---7-------7~------------------------------9--------|
d|---7-------7~-10--9---7-----------7--------7--------|
a|---5--7/9-------------7-----------7--5/7---7--------|
E|--------------8---7---5----5--5---5-----------------|
                      P.M.|-------|

e|------------------------------------|
b|------------------------------------|
g|--7-------5----7--------------------|
d|--7-------5----7--------------------|
a|--5-------3----5--------------------|
E|------------------------------------|

Verso:(Guitarra)

e|--3----2---0---------|
b|--3----3---5---------|
g|--0----2----------0--| 2 Vezes
d|-------4-------4-----|
a|-------5---3---------|
E|--3------------------|

                             Riff 2
e|-------------0---|------------------------|
b|-------------0---|------------------------|
g|-------------5---|------------------------|
d|---5---4-----5---|--x-x-------------------|
a|---5---5-----3---|--x-x-------------------|
E|---3---2---------|--------8~-7b(8)r7------|

e|------------------------------------------|
b|--------------------------10--------------|
g|--------------------------9---------------|
d|--7--------------7~-------7---------------|
a|--7--------------7~--5/7--7---------------|
E|--5------5--5----5~-----------------------|
      P.m|--------|

e|---------------------------------------------------|
b|-------------------------------------------10------|
g|---7-------7~------------------------------9-------|
d|---7-------7~-10--9---7-----------7--------7-------|
a|---5--7/9-------------7-----------7--5/7---7-------|
E|--------------8---7---5----5--5---5----------------|
                       P.m.|-------|

e|--------------------------------|
b|--------------------------------|
g|---7----------------------x-x---|
d|---7-----5-5-5---7-7-7----x-x---|
a|---5-----3-3-3---5-5-5----x-x---|
E|--------------------------------|

e|-------------------------------------------|
b|-------------------------------------------|
g|-------------------------------------------|
d|--------5-5--7-7-----------5--7------------|   2 Vezes
a|--5-5---3-3--5-5-----------3--5------------|
E|--3-3-------------(10)\\-------------------|

e|-------------------------------------|
b|-------------------------------------|
g|-------------------------------------|
d|-------5-5--7-7----------------------|
a|--5-5--3-3--5-5----------------------|
E|--3-3------------(10)\\--8~-7b(8)r7--|

e|------------------------------------------|
b|--------------------------10--------------|
g|--------------------------9---------------|
d|--7--------------7~-------7--(7)~~--------|
a|--7--------------7~--5/7--7---------------|
E|--5------5--5----5~-----------------------|
     P.m|--------|








e|-------------------------------------------------|
b|------------------------------------------10-----|
g|---7-------7~-----------------------------9------|
d|---7-------7~-10--9---7-----------7-------7------|
a|---5--7/9-------------7-----------7--5/7--7------|
E|---------------8--7---5----5--5---5--------------|
                      P.M.|-------|

e|----------------------|----------------|
b|----------------------|----------------|
g|---7--------7~--5--7--|----------------|
d|---7--------7~--5--7--|----------------|
a|---5---5-/9-5---3--5--|-7--------------|
E|----------------------|-0--------------|
 

Refrão:  
                                 H.A. (Harmônico com a palheta)
e|----------------------------------------------|
b|--------8-------------------------------------|
g|--------7-------------------------------------|
d|--------5---10-9----7-----------<7>~~---------|
a|--------7-----------7-------5/7---------------|
E|--0-0-------8--7----5--5-5--------------------|

e|--------------------------------------------|
b|-----------8--------------------------------|
g|-----------7-----------------14p12--14~-----|
d|-----------5-----------------14p12--14~-----|
a|-\-7-------7---------5/12-------------------|
E|-\-0--0-0------8-7--------------------------|

e|--------------------------------------------------------|
b|--------------------------------------------------------|
g|-------------9----------------------------5~------------|
d|-------------9--10-9---7--------7-------7-----7-5-------|
a|-\-7---------7---------7-------7----6/7-----------------|
E|-\-0---0-0------8--7---5---7/8--------------------------|

e|---------------------------------------|
b|---------------------------------------|
g|------------9--------------------------|
d|---2--------9-10-9---7-----------------|
a|-\-2--------7--------7------10--12--5--|
E|-\-0--0-0-----8--7---5------8---10--3--|





Solo:

e|-------------------------------------------------|
b|-------------------------------------------------|
g|-2/4- 5-7----------12b(14)-12-12-11--------------|
d|------------5/7~--------------------10~----------|
a|-------------------------------------------------|
E|-------------------------------------------------|

e|-----------------------------------------------------|
b|-----------------------------------------------------|
g|---------11-12-14-(14)b(16)-14p12p11-14--------------|
d|-12/14-----------------------------------------------|
a|-----------------------------------------------------|
E|-----------------------------------------------------|

e|----------------------------------------------------------|
b|----------------------------------------------------------|
g|-------------11-12-12b(14)r(12)-11-12~~~~-----------------|
d|---------12-------------------------------12-\\-----------|
a|-----12---------------------------------------------------|
E|-10-------------------------------------------------------|

e|--15-17b(19)~~~~--17-b-(19)~~--15-17----------------------|
b|--x--------------(17)b----------------15~~----------------|
g|----------------------------------------------------------|
d|----------------------------------------------------------|
a|----------------------------------------------------------|
E|----------------------------------------------------------|

e|------------------------------------------------------|
b|------------------------------------------------------|
g|------------------------------------------------------|
d|----------------------------14-16-17-16-17-19---------|
a|-----------12-14-15-14-15-17--------------------------|
E|--12-14-15--------------------------------------------|

e|----------------------x17-19b(20)~~~~~~~~---------------------|
b|-----------17-19-20-------------------------------------------|
g|-16-17-19-----------------------------------------------------|
d|--------------------------------------------------------------|
a|--------------------------------------------------------------|
E|--------------------------------------------------------------|


É isso aí pessoal...agora a música segue repetindo os riffs...falow;;;;;
Composição de Bernie Marsden / David Coverdale
Colaboração e revisão:
  • marcelo rodrigues
18.944 exibições
    • ½ Tom
    • A
    • Bb
    • B
    • C
    • Db
    • D
    • Eb
    • E
    • F
    • F#
    • G
    • Ab
  • Adicionar à lista

    0 comentários

    Ver todos os comentários

    Conseguiu tocar?

    1 Tocaram 0 Ainda não

    Grave um vídeo tocando Here i Go Again e nos envie!

    00:00 / 00:00
    Outros vídeos desta música
    Repetir Qualidade Automático
    Outros vídeos desta música
    00:00 / 00:00
    Automático
    Capítulos
    • Tocando a música
    • Apresentação / Equipamentos
    • Configuração do Pedal
    • Dicas Introdução ao Refrão
    • Acordes do Refrão
    • Tocando Refrão
    • Ensinando Refrão
    • Refrão - Guitarra Principal
    • Refrão - Guitarra Principal - Parte 1
    • Refrão - Guitarra Principal - Parte 2
    • Refrão - Guitarra Principal - Parte 3
    • Dicas Guitarra Principal
    • Acordes Terceira Parte
    • Tocando Terceira Parte
    • Ensinando Terceira Parte
    • Dicas Repetição - Ponte
    • Tocando Refrão - Ponte
    • Ensinando Passagem Ponte
    • Ensinando Ponte - Guitarra Principal
    • Ponte - Guitarra Principal - Parte 1
    • Ponte - Guitarra Principal - Parte 2
    • Tocando Solo
    • Ensinando Solo - Parte 1 de 3
    • Ensinando Solo - Parte 2 de 3
    • Ensinando Solo - Parte 3 de 3
    • Encerramento
    • Ficha Técnica

    Cifra Club Pro

    Aproveite o Cifra Club com benefícios exclusivos e sem anúncios
    Cifra Club Pro
    Aproveite o Cifra Club com benefícios exclusivos e sem anúncios
    OK