Cifra Club

Saline Solution

Wilbur Soot

Cifra: Principal (violão e guitarra)
tom: F
[Intro] F7  Am  C
        F7  Am  C
        F7  Am  C
        F7  Am  C

[Verse 1]

F7                          Am  C
I think I'm dying this time
F7      Am           C
I’m not melodramatic
         Em
I'm just pragmatic beyond any
F7       Am            C
Reasoning for thinking I've got
        Em
Fuckin’ rabies, or something

[Refrão]

F                           Am  C
I think I'm dying this time
F                           Am  C
I think I'm dying this time

[Tab - Frase]

Parte 1 de 4

E|-0-0---0---0------------------------------|
B|-1-1---1---1------------------------------|
G|-2-2---0---0-----0------------------------|
D|-3-3---2---2---------2--------------------|
A|-0-0---3---3---3--------------------------|
E|-1-1---0---0------------------------------|

Parte 2 de 4

E|-0-0---0---0------------------------------|
B|-1-1---1---1------------------------------|
G|-2-2---0---0-----0------------------------|
D|-3-3---2---2---------2--------------------|
A|-0-0---3---3---3--------------------------|
E|-1-1---0---0------------------------------|

Parte 3 de 4

E|-0-0---0---0------------------------------|
B|-1-1---1---1------------------------------|
G|-2-2---0---0-----0------------------------|
D|-3-3---2---2---------2--------------------|
A|-0-0---3---3---3--------------------------|
E|-1-1---0---0------------------------------|

Parte 4 de 4

E|-0-0---0---0------------------------------|
B|-1-1---1---1------------------------------|
G|-2-2---0---0-----0------------------------|
D|-3-3---2---2---------2--------------------|
A|-0-0---3---3---3--------------------------|
E|-1-1---0---0------------------------------|

[Segunda Parte]

F7                        Am  C
I think I've lost my mind
F7           Am
Blurring the fact and the fictions
C         Em
While simultaneously fixing
F7     Am             C
Myself up with a girl
      Em
Named panadol
F7       Am
Bite the tablet, elixir
C      Em
Disintegrate, mouth's a mixer

[Refrão]

F                         Am  C
I think I've lost my mind
F                       Am  C
I think I've lost my mind

[Tab - Frase]

Parte 1 de 2

E|-0-0---0---0------------------------------|
B|-1-1---1---1------------------------------|
G|-2-2---0---0-----0------------------------|
D|-3-3---2---2---------2--------------------|
A|-0-0---3---3---3--------------------------|
E|-1-1---0---0------------------------------|

Parte 2 de 2

E|-0-0---0---0------------------------------|
B|-1-1---1---1------------------------------|
G|-2-2---0---0-----0------------------------|
D|-3-3---2---2---------2--------------------|
A|-0-0---3---3---3--------------------------|
E|-1-1---0---0------------------------------|

[Ponte]

[Tab -Ponte]

   Dm7   Cm   F#7(9-)
E|--5----3----2-----------------------------|
B|--6----4----2-----------------------------|
G|--5----5----0-----------------------------|
D|--0----5----2-----------------------------|
A|--0----3----1-----------------------------|
E|--x----3----------------------------------|

Dm7              Cm            F#7(9-)
If I could just break one more night
Dm7                Cm            F#7(9-)
Maybe I could wake up and feel alright
Dm7               Cm           F#7(9-)
My optimistically set alarm clock time
Dm7            Cm               F#7(9-)     D7
Serves only to mock me with flashing lights

[Instrumental]

Parte 1 de 4

E|-0-0---0---0------------------------------|
B|-1-1---1---1------------------------------|
G|-2-2---0---0-----0------------------------|
D|-3-3---2---2---------2--------------------|
A|-0-0---3---3---3--------------------------|
E|-1-1---0---0------------------------------|

Parte 2 de 4

E|-0-0---0---0------------------------------|
B|-1-1---1---1------------------------------|
G|-2-2---0---0-----0------------------------|
D|-3-3---2---2---------2--------------------|
A|-0-0---3---3---3--------------------------|
E|-1-1---0---0------------------------------|

Parte 3 de 4

E|-0-0---0---0------------------------------|
B|-1-1---1---1------------------------------|
G|-2-2---0---0-----0------------------------|
D|-3-3---2---2---------2--------------------|
A|-0-0---3---3---3--------------------------|
E|-1-1---0---0------------------------------|

Parte 4 de 4

E|-0-0---0---0------------------------------|
B|-1-1---1---1------------------------------|
G|-2-2---0---0-----0------------------------|
D|-3-3---2---2---------2--------------------|
A|-0-0---3---3---3--------------------------|
E|-1-1---0---0------------------------------|

[Terceira Parte]

F7                       Am  C
I think I've made my choice
F7    Am
Sit secluded in hatred
C         Em
Devoid of plans friends are making
F7                        Am  C
I think I’ve made my choice
F7                             Am
I’m a leech, sucking blood bag
C      Em
Taste defeat, it's a sandbag
F7                        Am  C
I think I’ve found my voice
F7
I sit secluded in hatred
C         Em
Devoid of plans friends are making

[Final]

F7        C Am
Saline solution
F7       C         Am
Saline solution to all your
F7         C  Am
Saline solution
F7       C         Am          F7
Saline solution to all your problems
00:00 / 00:00
Outros vídeos desta música
Repetir
Outros vídeos desta música
Composição de Wilbur Soot
Colaboração e revisão:
  • Lumiah Ribeiro
4 exibições
    • ½ Tom
    • A
    • Bb
    • B
    • C
    • Db
    • D
    • Eb
    • E
    • F
    • F#
    • G
    • Ab
  • Adicionar à lista

    0 comentários

    Ver todos os comentários

    Conseguiu tocar?

    0 Tocaram 0 Ainda não

    Grave um vídeo tocando Saline Solution e nos envie!

    00:00 / 00:00

    Cifra Club Pro

    Aproveite o Cifra Club com benefícios exclusivos e sem anúncios
    Cifra Club Pro
    Aproveite o Cifra Club com benefícios exclusivos e sem anúncios
    OK