Cifra Club

Paradise

Wild Nothing

Cifra: Principal (violão e guitarra)
Selo Cifra Club: esta cifra foi revisada para atender aos critérios oficiais da nossa Equipe de Qualidade.
tom: F#
CHORUS:                       [x3]
E|-2---222-xx-2-x-2-x-|-2-22-2-xx-2-x-2-x-|
B|-2---222-xx-2-x-2-x-|-2-22-2-xx-2-x-2-x-|
G|-3h4-444-xx-3-x-4-x-|-3-44-4-xx-3-x-4-x-|
D|-4---444-xx-4-x-4-x-|-4-44-4-xx-4-x-4-x-|
A|--------------------|-------------------|
E|--------------------|-------------------|

E|-2-22-2-xx-2---2-x-| |-2-----|
B|-2-22-2-xx-2---2-x-| |-2-----|
G|-3-44-4-xx-3h4-4-x-| |-3-----|
D|-4-44-4-xx-4---4-x-| |-4-----|
A|-------------------| |-------|
E|-------------------| [x4] |-------|

    Dancer in the night
    Playing with my eyes
    Velvet tongue so sweet
    Say anything you like

Repeat CHORUS

    Crush me with a lie
    And tell me once or twice
    That love is paradise
    That love is paradise

BRIDGE: (listen to song for timing)
e|-222-2-xx-2-x-2-x-|-2-222-2-xx-2-x-2-x-|-2-222-2-xx-2-x-2-x-|-2-222-2-xx-2-x-2-x-|
B|-444-2-xx-4-x-2-x-|-2-444-2-xx-4-x-2-x-|-2-222-2-xx-2-x-2-x-|-2-222-2-xx-2-x-2-x-|
G|-333-3-xx-3-x-3-x-|-3-333-3-xx-3-x-3-x-|-3-333-4-xx-3-x-4-x-|-3-333-4-xx-3-x-4-x-|
D|-444-4-xx-4-x-4-x-|-4-444-4-xx-4-x-4-x-|-4-444-4-xx-4-x-4-x-|-4-444-4-xx-4-x-4-x-|
A|------------------|--------------------|--------------------|--------------------|
E|------------------|--------------------|--------------------|--------------------|

e|-2-222-2-xx-2-x-2-x-|-2-222-2-xx-2-x-2-x-|-2-222-2-xx-2-x-2-x-|-2-222-2-xx-2-x-2-x-|
B|-2-444-2-xx-4-x-2-x-|-2-444-2-xx-4-x-2-x-|-2-222-2-xx-2-x-2-x-|-2-222-2-xx-2-x-2-x-|
G|-3-333-3-xx-3-x-3-x-|-3-333-3-xx-3-x-3-x-|-3-333-4-xx-3-x-4-x-|-3-333-4-xx-3-x-4-x-|
D|-4-444-4-xx-4-x-4-x-|-4-444-4-xx-4-x-4-x-|-4-444-4-xx-4-x-4-x-|-4-444-4-xx-4-x-4-x-|
A|--------------------|--------------------|--------------------|--------------------|
E|--------------------|--------------------|--------------------|--------------------| [x3]

E|-2-2-----| |-2-------|
B|-2-2-----| |-2-------|
G|-3-4-----| |-3h4-----|
D|-4-4-----| OR THIS: |-4-------|   (both sound good)
A|---------| |---------|
E|---------| |---------|

INSTRUMENTAL PART: (there's no guitar here, but you can play along with these chords)
E|------------------------|
B|------------------------|
G|-8--11--4----6--8--4----|
D|-8--11--4----6--8--4----|
A|-6--9---2----4--6--2----|
E|------------------------|

FEEDBACK PART: (03:57)
  before drums | with drums
E|-14----------|-------------|
B|-------------|-14----------|
G|-------------|-------------|
D|-------------|-------------|
A|-------------|-------------|
E|-------------|-------------|

BRIDGE VARIATION:
e|-222-2-xx-2-x-2-x-|-2-222-2-xx-2-x-2-x-|-2-222-2-xx-2-x-2-x-|-2-222-2-xx-2-x-2-x-|
B|-444-2-xx-4-x-2-x-|-2-444-2-xx-4-x-2-x-|-4-222-2-xx-2-x-2-x-|-2-222-2-xx-2-x-2-x-|
G|-333-3-xx-3-x-3-x-|-3-333-3-xx-3-x-3-x-|-3-333-4-xx-3-x-4-x-|-3-333-4-xx-3-x-4-x-|
D|-444-4-xx-4-x-4-x-|-4-444-4-xx-4-x-4-x-|-4-444-4-xx-4-x-4-x-|-4-444-4-xx-4-x-4-x-|
A|------------------|--------------------|--------------------|--------------------|
E|------------------|--------------------|--------------------|--------------------|

e|-2-222-2-xx-2-x-2-x-|-2-222-2-xx-2-x-2-x-|-2-222-2-xx-2-x-2-x-|-2-222-2-xx-2-x-2-x-|
B|-2-444-2-xx-4-x-2-x-|-2-444-2-xx-4-x-2-x-|-4-222-2-xx-2-x-2-x-|-2-222-2-xx-2-x-2-x-|
G|-3-333-3-xx-3-x-3-x-|-3-333-3-xx-3-x-3-x-|-3-333-4-xx-3-x-4-x-|-3-333-4-xx-3-x-4-x-|
D|-4-444-4-xx-4-x-4-x-|-4-444-4-xx-4-x-4-x-|-4-444-4-xx-4-x-4-x-|-4-444-4-xx-4-x-4-x-|
A|--------------------|--------------------|--------------------|--------------------|
E|--------------------|--------------------|--------------------|--------------------|

E|-2-2-----| |-2-------|
B|-2-2-----| |-2-------|
G|-3-4-----| |-3h4-----|
D|-4-4-----| OR THIS: |-4-------|   (both sound good)
A|---------| |---------|
E|---------| |---------|

    Dancer in the night
    Playing with my eyes
    Velvet tongue so sweet
    Say anything you like

    Crush me with a lie
    And tell me once or twice
    That love is paradise
    That love is paradise
Outros vídeos desta música
    18 exibições
      • ½ Tom
      • A
      • Bb
      • B
      • C
      • Db
      • D
      • Eb
      • E
      • F
      • F#
      • G
      • Ab
    • Adicionar à lista

    Afinação da cifra

    Afinador online

      0 comentários

      Ver todos os comentários

      Entre para o Cifra Club PRO

      Tenha acesso a benefícios exclusivos no App e no Site

      • Chega de anúncios

      • Badges exclusivas

      • Mais recursos no app do Afinador

      • Atendimento Prioritário

      • Aumente seu limite de lista

      • Ajude a produzir mais conteúdo

      Cifra Club Pro

      Aproveite o Cifra Club com benefícios exclusivos e sem anúncios
      Cifra Club Pro
      Aproveite o Cifra Club com benefícios exclusivos e sem anúncios
      Ops (: Contenido disponible sólo en portugués.
      OK