Cifra Club

Quiet Hours

Wild Nothing

Cifra: Principal (violão e guitarra)
Selo Cifra Club: esta cifra foi revisada para atender aos critérios oficiais da nossa Equipe de Qualidade.
tom: B
E|E|-------------------------------------------------------------------------------||
                         Quiet Hours - Wild Nothing
E|E|-------------------------------------------------------------------------------||

Tuning: Standard

[Intro/Post-Chorus/Outro]

E|---------------------------------------------------------------------------|
B|---------------------------------------------------------------------------|
G|---------------------------------------------------------------------------|
D|--7-77-6-6-44/6-44-6-------------------------------------------------------|
A|---------------------4-4-2-2-2-2-2-2---------------------------------------|
E|---------------------------------------------------------------------------|

or

E|---------------------------------------------------------------------------|
B|---------------------------------------------------------------------------|
G|---------------------------------------------------------------------------|
D|--7-77-6-6-44/6-44-6---------2---------------------------------------------|
A|---------------------4-2-2h4---4-------------------------------------------|
E|---------------------------------------------------------------------------|

[Verse]

E|---------------------------------------------------------------------------|
B|---------------------------------------------------------------------------|
G|---------------------------------------------------------------------------|
D|--7-77-6-6-9-99-6-66-7-77-6-6-4-4-2-222------------------------------------|
A|---------------------------------------------------------------------------|
E|---------------------------------------------------------------------------|

[Chorus]
(Short riff at 0:58 and 2:00)
   B
E|-----------------|-----------------|
B|-4-5-4-----------|---4-------------|
G|-------4-6-4---4-| (4)--4-------4-6-|
D|-------------4---|-----------------|
A|-----------------|-----------------|
E|-----------------|-----------------|
Outros vídeos desta música
    10 exibições
      • ½ Tom
      • A
      • Bb
      • B
      • C
      • Db
      • D
      • Eb
      • E
      • F
      • F#
      • G
      • Ab
    • Adicionar à lista

    Afinação da cifra

    Afinador online

      0 comentários

      Ver todos os comentários

      Entre para o Cifra Club PRO

      Tenha acesso a benefícios exclusivos no App e no Site

      • Chega de anúncios

      • Badges exclusivas

      • Mais recursos no app do Afinador

      • Atendimento Prioritário

      • Aumente seu limite de lista

      • Ajude a produzir mais conteúdo

      Cifra Club Pro

      Aproveite o Cifra Club com benefícios exclusivos e sem anúncios
      Cifra Club Pro
      Aproveite o Cifra Club com benefícios exclusivos e sem anúncios
      Ops (: Contenido disponible sólo en portugués.
      OK