Cifra Club

Rheya

Wild Nothing

Cifra: Principal (violão e guitarra)
Selo Cifra Club: esta cifra foi revisada para atender aos critérios oficiais da nossa Equipe de Qualidade.
tom: E
E|---------------------------------------|
B|---------------------------------------|
G|--11---------9--------11---------9-----|
D|------9--11-----11--------9--11-----7--|
A|---------------------------------------|
E|---------------------------------------|


[Verse A]

E|------------------|
B|------------------|
G|--11---------9----|
D|------9--11-----7-|
A|------------------|
E|------------------|


[Verse B]

E|----------------------------------|
B|-----------7----------------------|
G|--9--6--9--------------6----------|
D|--------------9--7--9-----9--7----|
A|--------------------------------9-|
E|----------------------------------|


[Verse C]

E|---------------------------------------|
B|---------------------------------------|
G|--11---------9--------11---------9-----|
D|------9--11-----11--------9--11-----7--|
A|---------------------------------------|
E|---------------------------------------|


Order:

Intro/Outro x2
Verse A x2
Verse B x2
Verse C x1
Verse A x2
Verse B x4
Intro/Outro x6
Outros vídeos desta música
    24 exibições
      • ½ Tom
      • A
      • Bb
      • B
      • C
      • Db
      • D
      • Eb
      • E
      • F
      • F#
      • G
      • Ab
    • Adicionar à lista

    Afinação da cifra

    Afinador online

      0 comentários

      Ver todos os comentários

      Entre para o Cifra Club PRO

      Tenha acesso a benefícios exclusivos no App e no Site

      • Chega de anúncios

      • Badges exclusivas

      • Mais recursos no app do Afinador

      • Atendimento Prioritário

      • Aumente seu limite de lista

      • Ajude a produzir mais conteúdo

      Cifra Club Pro

      Aproveite o Cifra Club com benefícios exclusivos e sem anúncios
      Cifra Club Pro
      Aproveite o Cifra Club com benefícios exclusivos e sem anúncios
      Ops (: Contenido disponible sólo en portugués.
      OK