Cifra Club

On The Road Again

Willie Nelson

Cifra: Principal (violão e guitarra)
Selo Cifra Club: esta cifra foi revisada para atender aos critérios oficiais da nossa Equipe de Qualidade.
tom: E
[Intro] E

E                 
On the road again 
                               Ab
Just  cant wait to get on the road again
                    F#m
The life i love is makin' music with my friends
    A              B                  E
And I can't wait to get on the road again

E                                          Ab
On the road again, going places that I've never been
                         F#m
Seein'things that I may never see again
    A                B                     E
And I can't wait to get back on the road again

        A          
On the road again
                                              E
Like a band of gypsies we go on down the highway
           A              
We're the best of friends 
                                    E
Insisting that the world be turning our way
     B
And our way

E                     
Is on the road again
                                Ab
Just can't wait to get on the road again
                     F#m
Well I find love is makin' music with my friends
    A                 B                E
And I  can't wait to get on the road again

[Solo]

E|----------------------------------------------------|
B|----------------------------------------------------|
G|-----/11-13-13-----13-11-13-13b14r13-11-9--11-13-13-|
D|-9-9------------------------------------------------|
A|----------------------------------------------------|
E|----------------------------------------------------|

E|----------------------------------------------------|
B|----------------------------------------------------|
G|----/13-11-13-13b14r13-11-9-11/13--11-11-10-11------|
D|----------------------------------------------------|
A|----------------------------------------------------|
E|----------------------------------------------------|

E|----------------------------------------------------|
B|----------------------------------------------------|
G|-11-13-13/14-14-14-13-13-11-8-9~--------------------|
D|----------------------------------------------------|
A|----------------------------------------------------|
E|----------------------------------------------------|

E|----------------------------------------------------|
B|----------------------------------------------------|
G|-----/11-13-13-----13-11-13-13b14r13-11-9--11-13-13-|
D|-9-9------------------------------------------------|
A|----------------------------------------------------|
E|----------------------------------------------------|

E|----------------------------------------------------|
B|----------------------------------------------------|
G|----/13-11-13-13b14r13-11-9-11/13--11-11-10-11------|
D|----------------------------------------------------|
A|----------------------------------------------------|
E|----------------------------------------------------|

E|----------------------------------------------------|
B|----------------------------------------------------|
G|-11-13-13/14-14-14-13-13-11-8-9~--------------------|
D|----------------------------------------------------|
A|----------------------------------------------------|
E|----------------------------------------------------|
        A          
On the road again
                                              E
Like a band of gypsies we go on down the highway
           A              
We're the best of friends 
                                    E
Insisting that the world be turning our way
     B
And our way

E                     
Is on the road again
                                Ab
Just can't wait to get on the road again
                     F#m
Well I find love is makin' music with my friends
    A                 B                E
And I  can't wait to get on the road again
Outros vídeos desta música
    49.802 exibições
      • ½ Tom
      • A
      • Bb
      • B
      • C
      • Db
      • D
      • Eb
      • E
      • F
      • F#
      • G
      • Ab
    • Adicionar à lista

    Afinação da cifra

    Afinador online

      0 comentários

      Ver todos os comentários

      Entre para o Cifra Club PRO

      Tenha acesso a benefícios exclusivos no App e no Site

      • Chega de anúncios

      • Mais recursos no app do Afinador

      • Atendimento Prioritário

      • Aumente seu limite de lista

      • Ajude a produzir mais conteúdo

      Cifra Club Pro

      Aproveite o Cifra Club com benefícios exclusivos e sem anúncios
      Cifra Club Pro
      Aproveite o Cifra Club com benefícios exclusivos e sem anúncios
      OK