Cifra Club

Black Friday Cifra Club

The Scientist

Willie Nelson

Cifra: Principal (violão e guitarra)
tom: E
  E6      A    E7Major  Bsus4
E|----------------------------|
B|--5------2-------5------5---|
G|--4------2-------4------4---|
D|--2------2-------2------4---|
A|--4------0-------2------2---|
E|----------------------------|

Intro 
     E6                        A
E|-----------------------------------------------|
B|--5-----5-----5-----5-------2-----2-----5/7-5--|
G|-----------------------------------------------|
D|-----2-----2-----2-----2-------2-----2---------|
A|--4-------------------------0------------------|
E|-----------------------------------------------|

    E7Maj
E|--------------------------------------------------|
B|--5-----5-----5-----5-----5-----5-----5-----5-----|
G|--------------------------------------------------|
D|-----2-----2-----2-----2-----2-----2-----2-----2--|
A|--2-----------------------------------------------|
E|--------------------------------------------------|

E6           A                      E7M
  Come up to meet you, tell you I'm sorry
You don't know how lovely you are
E6         A                    E7M
  I had to find you, Tell you I need you
Tell you I set you apart
E6             A                        E7M
  Tell me your secrets, And ask me your questions
Oh, let's go back to the start

E6           A                  E7M
  Running in circles, Coming up tails
Heads on a science apart

     E6                        A
E|-----------------------------------------------|
B|--5-----5-----5-----5-------2-----2-----5/7-5--|
G|--4-----4-----4-----4-------2-----2-----2/4-2--|
D|--2-----2-----2-----2-------2-----2-----2/4-2--|
A|--4-----4-----4-----4-------0-----0------------|
E|-----------------------------------------------|

    E7Major
E|--------------------------------------------------|
B|--5-----5-----5-----5-----5-----5-----5-----5-----|
G|--4-----4-----4-----4-----4-----4-----4-----4-----|
D|--2-----2-----2-----2-----2-----2-----2-----2-----|
A|--2-----2-----2-----2-----2-----2-----2-----2-----|
E|--------------------------------------------------|

E6       A                E7M
  Nobody said it was easy,    It's such a shame for us to part
E6       A                E7M
  Nobody said it was easy,    No one ever said it would be this hard

Oh, take me back to the start

Verses
     E6                        A
E|-----------------------------------------------|
B|--5-----5-----5-----5-------2-----2-----5/7-5--|
G|-----------------------------------------------|
D|-----2-----2-----2-----2-------2-----2---------|
A|--4-------------------------0------------------|
E|-----------------------------------------------|

    E7Major
E|--------------------------------------------------|
B|--5-----5-----5-----5-----5-----5-----5-----5-----|
G|--------------------------------------------------|
D|-----2-----2-----2-----2-----2-----2-----2-----2--|
A|--2-----------------------------------------------|
E|--------------------------------------------------|

E6           A                        E7M
  I was just guessing, At numbers and figures
Pulling the puzzles apart
E6             A                    E7M
  Questions of science, Science and progress
Don't speak as loud as my heart
E6            A                      E7M
  Tell me you love me, Come back and haunt me
Oh, and I rush to the start
E6           A                E7M
  Running in circles, Chasing tails
Coming back as we are

E6       A                E7M
  Nobody said it was easy,  Oh It's such a shame for us to part
E6       A                E7M
  Nobody said it was easy,    No one ever said it would be this hard

E|-----------------------|
B|-----------------------|
G|------2--4--2---2--4---|
D|----2---------4--------|
A|--2--------------------|
E|-----------------------|

     E6                        A
E|-----------------------------------------------|
B|--5-----5-----5-----5-------2-----2-----5/7-5--|
G|--4-----4-----4-----4-------2-----2-----2/4-2--|
D|--2-----2-----2-----2-------2-----2-----2/4-2--|
A|--4-----4-----4-----4-------0-----0------------|
E|-----------------------------------------------|

    E7Major                 Bsus2
E|--------------------------------------------------|
B|--5-----5-----5-----5-----5-----5-----5-----5-----|
G|--4-----4-----4-----4-----4-----4-----4-----4-----|
D|--2-----2-----2-----2-----4-----4-----4-----4-----|
A|--2-----2-----2-----2-----2-----2-----2-----2-----|
E|--------------------------------------------------|
00:00 / 00:00
Outros vídeos desta música
Repetir
Outros vídeos desta música
Composição de Chris Martin / Guy Berryman / Jonny Buckland / Will Champion
Colaboração e revisão:
  • Juan Fernando
4.697 exibições
    • ½ Tom
    • A
    • Bb
    • B
    • C
    • Db
    • D
    • Eb
    • E
    • F
    • F#
    • G
    • Ab
  • Adicionar à lista

    0 comentários

    Ver todos os comentários

    Conseguiu tocar?

    0 Tocaram 0 Ainda não

    Grave um vídeo tocando The Scientist e nos envie!

    Entre para oCifra Club PRO

    Tenha acesso a benefícios exclusivos no App e no Site

    • Chega de anúncios

    • Prioridade de compra em lançamentos

    • Mais recursos no app do Afinador

    • Atendimento Prioritário

    • Descontos nos produtos Cifra Club

    • Ajude a produzir mais conteúdo

    00:00 / 00:00

    Cifra Club Pro

    Aproveite o Cifra Club com benefícios exclusivos e sem anúncios
    Cifra Club Pro
    Aproveite o Cifra Club com benefícios exclusivos e sem anúncios
    OK