Cifra Club

Fácil

Wilson Sideral

Cifra: Principal (violão e guitarra)
tom: C
Introdução: G, D/F#, F, C (4 vezes)

G          D/F#
Tudo é tão bom,
 C                  Bm
e azul e calmo como sempre
  C                    Bm       Am  
Os olhos piscaram de repente, como num sonho,
   G          D/F#
As coisas são assim,
C               Bm
quando se está amando,
  C                     Bm             Am    Em   
As bocas não se deixam um segundo, não tem fim
Em        Bm      C            G    D/F#
Um dia feliz, as vezes é muito raro,    
Em            Bm             C    C/D
falar é complicado, quero uma canção,
G                  D/F# 
 Fácil, extremamente fácil, 
         F              C                (2X)
 pra você e eu e todo mundo, canta junto
  G           D/F#
Tudo se torna claro,
C            Bm       
Pateticamente pálido, 
  C          Bm              Am   
E o coração dispara, se eu vejo o teu carro.
  G          D/F#    
A vida é tão simples, 
C               Bm       
mais dá medo de tocar,
  C                 Bm                   Am   
As mãos se procuram sós, como agente mesmo quis.
Em     Bm            C          G   D/F#
Um dia feliz, as vezes é muito raro,   
Em        Bm             C       C/D
falar é complicado, quero uma canção,
G                  D/F# 
 Fácil, extremamente fácil, 
         F              C                (2X)
 pra você e eu e todo mundo, canta junto

(Repete introdução) 
...pra você e eu e todo mundo cantar Junto...
...                                        G5   G5    G5   G5   Bb5
E|-12...---0-1-2-3-5-------           E|---3-3--3-3---3-3--3-3--6..    
A|-------------------2-3-5-  (1 Vez)  A|---5-5--5-5---5-5--5-3--8..     (3 Vezes)
D|-------------------------           D|---5-5--5-5---5-5--5-5--8..

D|-------------------------           D|--5-5--5-5---5-5--5-5--8 ...    
A|-------------------2-3-5-  (1 Vez)  A|--5-5--5-5---5-5--5-3--8 ...  (3 Vezes)
E|-12...---0-1-2-3-5-------           E|--3-3--3-3---3-3--3-3--6 ...

solo por Pedro Henrique Amaral de Souza
e|-------------------------------------------------------------------------------------
B|-----------------------10-10-8-10---10-----11-11-11-10--------------------15---------
G|---------------------------------------9-----------------12-7-9-7-----15------15-----
D|-------------------------------------------------------------------------------------
A|-3-----------2-3-4-------------------------------------------------------------------
E|----0-1-2-3--------------------------------------------------------------------------

e|---------------------------------------------------15-17-17-15---17-17------19-19-19-
|--15-15-15-15-15---13------13-15----------------17----------------------17------------
G|-----------------------14-------------12-14-16---------------------------------------
D|-------------------------------------------------------------------------------------
A|-------------------------------------------------------------------------------------
E|-------------------------------------------------------------------------------------

e|-17---15----12-----------------------------------------------------------------------
B|---------------15-----12-----------------------15------------------------------------
G|----------------------14--12----------------14-----14---12-14-12---14--15-15-15-15---
D|---------------------------------12-14-12-----------------------------------------12-
A|-------------------------------------------------------------------------------------
E|-------------------------------------------------------------------------------------

...Acompanhamento Solo...

G5 .. F#5 .. F5 .. C5 .. 

...pra você e eu e todo mundo, canta junto

obs.: a Cifra C/D é na 5° casa.
00:00 / 00:00
Outros vídeos desta música
Repetir
Outros vídeos desta música
Composição de Rogério Flausino / Wilson Sideral
Colaboração e revisão:
  • Pedro Souza
8.531 exibições
    • ½ Tom
    • A
    • Bb
    • B
    • C
    • Db
    • D
    • Eb
    • E
    • F
    • F#
    • G
    • Ab
  • Adicionar à lista

    0 comentários

    Ver todos os comentários

    Conseguiu tocar?

    1 Tocaram 0 Ainda não

    Grave um vídeo tocando Fácil e nos envie!

    Entre para oCifra Club PRO

    Tenha acesso a benefícios exclusivos no App e no Site

    • Chega de anúncios

    • Prioridade de compra em lançamentos

    • Mais recursos no app do Afinador

    • Atendimento Prioritário

    • Descontos nos produtos Cifra Club

    • Ajude a produzir mais conteúdo

    00:00 / 00:00

    Cifra Club Pro

    Aproveite o Cifra Club com benefícios exclusivos e sem anúncios
    Cifra Club Pro
    Aproveite o Cifra Club com benefícios exclusivos e sem anúncios
    OK