Notificações Amigos pendentes

      Wilson Sideral

      Fugindo de Mim

      197.063 exibições
      Tom: F
      (intro)   F/C  Dm7  Bb/C
      
      (parte 1)
      
      F/C            Dm7
        Pisando fundo,    acelerando tudo
      Bb9                        ( F9 F ) (2x) C/E
        Exagerando, saindo do limite
      ( Dm7(4) Dm7 ) (2x)    ( F9 F ) (2x)
        É o que eu te disse,   eu sou assim,
      ( Bb7M(9) Bb9 ) (2x)      ( F9 F ) (2x)
        partindo pra cima fugindo de mim
      ( F9 F ) (2x)     ( Dm7(4) Dm7 ) (2x)
        Eu corro muito,   eu vou pra todo lado
      ( Bb7M(9) Bb9 ) (2x)               ( F9 F ) (2x)  C/E
        Levando comigo quem tá do meu lado
      ( Dm7(4) Dm7 ) (2x)    ( F9 F ) (2x)
        É o que eu te disse,   eu sou assim,
      ( Bb7M(9) Bb9 ) (4x)
        partindo pra cima fugindo de mim
      
      (parte 2)
      
      Bb9 F/A          Gm7
        Aaah   não perco tempo nem perco a hora
      Bb9  F/A        Gm7
        Aaah ah, esse é o momento, a hora é agora
      Bb9  F/A         Gm7
        Aaah   vivo cada instante não quero perder nada
      Bb9
      Ontem está distante ficou lá atrás na estrada
      
      (dedilhado da parte 2)
      
      
      E|---------------------------|
      B|-6-----------------6-------|
      G|---5-------5---7-----------|
      D|-----8-7-8---5---5---5-7-8-|
      A|---------------------------|
      E|---------------------------|
      
      
      E|---------------------------|
      B|-6-------------6---6h8---6-|
      G|---5-------5-----7---------|
      D|-----8-7-8---5---------5---|
      A|---------------------------|
      E|---------------------------|
      
      
      E|------------------------|
      B|---6-----------------6--|
      G|-----5-------5---7------|
      D|-8-----8-7-8---5---5----|
      A|------------------------|
      E|------------------------|
      
      
      E|------------------------|
      B|-6-6-6-6---6-6-6-6---6--|
      G|-5-7-5-5h7-5-7-5-5h7-5--|
      D|-8-8-8-8---8-8-8-8---8--|
      A|------------------------|
      E|------------------------|
      
      
      (refrão)
      F                Eb7M(9)              Gm7      Bb/C
        Só não existe viver sozinho, viver sem você
      F                     F/Eb                   Bb9            F
        Sempre que eu fujo te levo aqui, aqui comigo por que te amo
      F                Eb7M(9)              Gm7      Bb/C
        Só não existe viver sozinho, viver sem você
      Dm7                   F                      Bb9
        Sempre que eu fujo te levo aqui, aqui comigo por que te amo
      
      (base do solo) Bb9  F/A  Gm7  Bb9  C  Dm
      
      (solo)
      
      E|-x\0------------12---------------------------------|
      B|-x\0--13b15-13~------------------------------------|
      G|-x\0---------------12b14-12~----10-12-12b14-12b14~-|
      D|-x\0-------------------------12--------------------|
      A|-x\0-----------------------------------------------|
      E|-x\0-----------------------------------------------|
      
      
      E|----------------13---------------------------------|
      B|-13b15-13-13b15----13b15~-15r13\0------------------|
      G|---------------------------------------------------|
      D|---------------------------------------------------|
      A|---------------------------------------------------|
      E|---------------------------------------------------|
      
      
      (parte 3)
      
      Bb9                  F/A          Gm7
        É o que eu  te disse, eu sou assim,
      Bb9             C  Dm
        partindo pra cima   fugindo de mim
      Bb9       F/A            Gm7
        Eu aproveito cada minuto
      Bb9
      Ontem está distante ficou lá atrás na estrada
        Composição: Wilson Sideral / CajuColaboração e revisão:
        • Lucão
        • Violanjo
        • fur4c4o
        • Arthurbhz
        • +2

        Comentários 7

        140 .
        • mvrovetta mvrovetta: Em 16/12/2012 21:29

          toca mt ele (y)

        • vitorcapslock vitorcapslock: Em 26/11/2012 17:50

          muito boa as aulas dele

        • vitorcapslock vitorcapslock: Em 26/11/2012 17:50

          pensei que era dificil o solo mais e mole peguei rapido

        • vitorcapslock vitorcapslock: Em 20/11/2012 17:42

          muito boa

        • pépe pépe: Em 13/07/2012 11:00

          ele ensinou a propria musica!

        • douglaspks douglaspks: Em 10/05/2011 18:23

          Wilson Sideral e Cifra Club estão de Parabéns pela parceria , ficou muito bom !

        • Rhanizada Rhanizada: Em 22/04/2011 10:42

          muito legal essa música. Valeu cifra Club!

        140 cancelar

        conseguiu tocar?

        covers

        Grave um vídeo tocando Fugindo de Mim e mande pra gente!

        Ex.: http://www.youtube.com/watch?v=0IvSvIwGdwk
        ver covers de outras músicas »
        0:00 / 0:00
        2 versões de violão dificuldade exibições contribuição e correção
        2 versões de guitarra dificuldade exibições contribuição e correção
        2 versões de cavaco dificuldade exibições contribuição e correção
        2 versões de teclado dificuldade exibições contribuição e correção
        play/pausefechar subir/descer velocidade
        6ª corda E5ª corda A4ª corda D3ª corda G2ª corda B1ª corda E
          acordes
          publicidade
          fechar
          ok