Cifra Club

Fugindo de Mim

Wilson Sideral

Cifra: Principal
exibições 199.165
Tom: F
(intro)   F/C  Dm7  Bb/C

(parte 1)

F/C            Dm7
  Pisando fundo,    acelerando tudo
Bb9                        ( F9 F ) (2x) C/E
  Exagerando, saindo do limite
( Dm7(4) Dm7 ) (2x)    ( F9 F ) (2x)
  É o que eu te disse,   eu sou assim,
( Bb7M(9) Bb9 ) (2x)      ( F9 F ) (2x)
  partindo pra cima fugindo de mim
( F9 F ) (2x)     ( Dm7(4) Dm7 ) (2x)
  Eu corro muito,   eu vou pra todo lado
( Bb7M(9) Bb9 ) (2x)               ( F9 F ) (2x)  C/E
  Levando comigo quem tá do meu lado
( Dm7(4) Dm7 ) (2x)    ( F9 F ) (2x)
  É o que eu te disse,   eu sou assim,
( Bb7M(9) Bb9 ) (4x)
  partindo pra cima fugindo de mim

(parte 2)

Bb9 F/A          Gm7
  Aaah   não perco tempo nem perco a hora
Bb9  F/A        Gm7
  Aaah ah, esse é o momento, a hora é agora
Bb9  F/A         Gm7
  Aaah   vivo cada instante não quero perder nada
Bb9
Ontem está distante ficou lá atrás na estrada

(dedilhado da parte 2)

E|---------------------------|
B|-6-----------------6-------|
G|---5-------5---7-----------|
D|-----8-7-8---5---5---5-7-8-|
A|---------------------------|
E|---------------------------|

E|---------------------------|
B|-6-------------6---6h8---6-|
G|---5-------5-----7---------|
D|-----8-7-8---5---------5---|
A|---------------------------|
E|---------------------------|

E|------------------------|
B|---6-----------------6--|
G|-----5-------5---7------|
D|-8-----8-7-8---5---5----|
A|------------------------|
E|------------------------|

E|------------------------|
B|-6-6-6-6---6-6-6-6---6--|
G|-5-7-5-5h7-5-7-5-5h7-5--|
D|-8-8-8-8---8-8-8-8---8--|
A|------------------------|
E|------------------------|

(refrão)
F                Eb7M(9)              Gm7      Bb/C
  Só não existe viver sozinho, viver sem você
F                     F/Eb                   Bb9            F
  Sempre que eu fujo te levo aqui, aqui comigo por que te amo
F                Eb7M(9)              Gm7      Bb/C
  Só não existe viver sozinho, viver sem você
Dm7                   F                      Bb9
  Sempre que eu fujo te levo aqui, aqui comigo por que te amo

(base do solo) Bb9  F/A  Gm7  Bb9  C  Dm

(solo)
E|-x\0------------12---------------------------------|
B|-x\0--13b15-13~------------------------------------|
G|-x\0---------------12b14-12~----10-12-12b14-12b14~-|
D|-x\0-------------------------12--------------------|
A|-x\0-----------------------------------------------|
E|-x\0-----------------------------------------------|

E|----------------13---------------------------------|
B|-13b15-13-13b15----13b15~-15r13\0------------------|
G|---------------------------------------------------|
D|---------------------------------------------------|
A|---------------------------------------------------|
E|---------------------------------------------------|

(parte 3)

Bb9                  F/A          Gm7
  É o que eu  te disse, eu sou assim,
Bb9             C  Dm
  partindo pra cima   fugindo de mim
Bb9       F/A            Gm7
  Eu aproveito cada minuto
Bb9
Ontem está distante ficou lá atrás na estrada
Acordes para:

    0 comentários

      mostrar mais comentários

      Conseguiu tocar?

      2tocaram0ainda não

      Grave um vídeo tocando Fugindo de Mim e mande pra gente!

      00:00 / 00:00
      outros vídeos desta música
      repetirqualidadeautomática
      Outro vídeos desta música
        00:00 / 00:00
        automática
        Capítulos
        • Início
        • Aprensetação
        • Wilson Sideral toca Fugindo de Mim
        • Acordes da introdução
        • Tocando a introdução
        • Tocando o ritmo da intro devagar
        • Ensinando o ritmo da introdução
        • Acordes da primeira parte
        • Tocando a primeira parte
        • Tocando o ritmo da primeira parte devagar
        • Ensinando o ritmo da primeira parte
        • Acordes da segunda parte
        • Tocando a segunda parte
        • Tocando o ritmo da segunda parte devagar
        • Ensinando o ritmo da segunda parte
        • Tocando dedilhado da segunda parte
        • Tocando o dedilhado devagar
        • Ensinando o dedilhado
        • Acordes do refrão
        • Tocando o refrão
        • Tocando o ritmo do refrão devagar
        • Ensinando o ritmo do refrão
        • Tocando o solo
        • Ensinando o solo
        • Acordes da base do solo e terceira parte
        • Tocando a base do solo e a terceira parte
        • Ritmo da base do solo e da terceira parte
        • Encerramento
        • Extras
        OK