Cifra Club

Aprenda

I'm Carrying

Wings

Cifra: Principal (violão e guitarra)
tom: E
Verso:
      E/G#                    Gm6                     F#m7                   F#4(7)
E|--------0-------0--------------0-------0--------------0-------0-------------0------0-------|
B|-----12------12------12-----11------11------11-----10------10------10-----0------0------0--|
G|--13------13------13-----12------12------12-----11------11------11-----11-----11-----11----|
D|-------------------------------------------------------------------------------------------|
A|-------------------------------------------------------------------------------------------|
E|-------------------------------------------------------------------------------------------|

E/G#            Gm6                  F#m7           F#4(7)
By dawn's first light I'll come back to your room again
E/G#        Gm6         F#m7          F#4(7)
With my carnation hidden by the packages

 
Refrão:   
     E/G#                     F#m7      F#4(7)
E|--------0--------0---------------0------0-------|
B|-----12------12-------12-----10-------0------0--|
G|--13------13-------13-----11-------11-----11----|
D|------------------------------------------------|
A|------------------------------------------------|
E|------------------------------------------------|

     E/G#    F#m7 F#4(7)   E/G#        F#m7 F#4(7)
I'm carrying               something
     E/G#     F#m7  F#4(7)  E/G#
I'm carrying something     for you


E/G#           Gm6       F#m7             F#4(7)
A long time no see baby sure has been a while
E/G#       Gm6          F#m7              F#4(7)
And if my reappearance lacks a sense of style

     E/G#    F#m7 F#4(7)   E/G#        F#m7 F#4(7)
I'm carrying               something
     E/G#     F#m7  F#4(7)  E/G#
I'm carrying something     for you


E/G# Gm6 F#m7 F#4(7) (x2)

     
     E/G#   F#m7 F#4(7)         E/G#    F#m7 F#4(7)
I'm carrying              can't help it
     E/G#     F#m7  F#4(7)  E/G#
I'm carrying something     for you

E/G# Gm6 F#m7 F#4(7) (x2)


     E/G#    F#m7 F#4(7)   E/G#        F#m7 F#4(7)
I'm carrying               something
     E/G#     F#m7  F#4(7)  E/G#
I'm carrying something     for you
Composição de Paul McCartney
Colaboração e revisão:
  • Lucas Carvalho
147 exibições
    • ½ Tom
    • A
    • Bb
    • B
    • C
    • Db
    • D
    • Eb
    • E
    • F
    • F#
    • G
    • Ab
  • Adicionar à lista

    0 comentários

    Ver todos os comentários
    00:00 / 00:00
    Outros vídeos desta música
    Repetir Qualidade Automático
    Outros vídeos desta música
    00:00 / 00:00
    Automático

    Cifra Club Pro

    Aproveite o Cifra Club com benefícios exclusivos e sem anúncios
    Cifra Club Pro
    Aproveite o Cifra Club com benefícios exclusivos e sem anúncios
    OK