Cifra Club

Fluffy

Wolf Alice

Cifra: Principal (violão e guitarra)
Selo Cifra Club: esta cifra foi revisada para atender aos critérios oficiais da nossa Equipe de Qualidade.
tom: E
E|E|-------------------------------------------------------------------------------||
                             FLUFFY - Wolf Alice
E|E|-------------------------------------------------------------------------------||
Tabbed by: Starsexplode (@jonbillwarren)

Tuning: Standard

There are two guitar parts in this song: 
Ellie strums barre chords with a distorted sound (sometimes with palm muting)
for everything except the verses which are clean.
Joff has an overdriven sound for the lead riffs and adds ambiance in the verses
with a modulated and delayed clean sound following the chords.

Riff A
E|-------------------------------------------------|
B|-9--9--9--9--9--9--9--9--9--9--9--9--9--9--9--9--|
G|-12-13-12-13-12-13-12-13-12-13-12-13-12-13-12-13-|    
D|-------------------------------------------------|
A|-------------------------------------------------|
E|-------------------------------------------------|

Riff B
E|-----------------------------| e|-------------------------------|
B|-------2---2---------2---2---| B|--------2---2----------2---2---|
G|-----4-4b6-4b6-----4-4b6-4b6-| OR G|----1-4-4b6-4b6----1-4-4b6-4b6-| (the latter fingering might be easier)
D|----6-------------6----------| D|-------------------------------|
A|-2/4-----------2/4-----------| A|-2/4------------2/4------------|
E|-----------------------------| E|-------------------------------|

Riff C
   F#                                   E
e|---------------------------------------------------------------------------|
B|(slowly release palm mute)-------------------------------------------------|
G|-3-3-3-5-5-5-6-6-3-3-3-5-5-5-6-6------1-1b2r1------------------------------|
D|---------------------------------------2-----2-----------------------------|
A|---------------------------------------------------------------------------|
E|---------------------------------------------------------------------------|

Chords:
   E    F#   A    A    C#       
E|-0----2----5----0----9-----------------------------------------------------|
B|-0----2----5----2----9-----------------------------------------------------|
G|-1----3----6-or-2----10----------------------------------------------------|
D|-2----4----7----2----11----------------------------------------------------|
A|-2----4----7----0----11----------------------------------------------------|
E|-0----2----5----x----9-----------------------------------------------------|

[Intro]
C# A C# A (w/ Riff A x 4)
C# A      (w/ Riff B x 1 then Riff A x 1)
F# E F# E (w/ Riff C x 2)

[Verse 1]
F#             A                
You look smart but I don't care
E              
I'm not looking for no love affair
F#
I'd sell you my soul just to get me somewhere
F#                 A
What's there to do in this dead old town?
E
Oh I can't believe I live here now
F#
So I'm searchin' for cheap thrills the way I know how

[Bridge and Chorus]
F# (w/ Riff C x 1)                      
Ah-ah-ah-ah-ah-ah
E
Sixteen! So sweet!
F# (w/ Riff C x 1)
Ah-ah-ah-ah-ah-ah
E
Sixteen! So sweet!

[Break]
F# C# A C# A (w/ Riff A x 5)

[Verse 2]
F#                 A                    
Send me your laugh make it bright and early
E
What makes you smile just makes me feel funny
F#
So who's gonna love me and where's all the money?
F#                  N.C                   A 
What's there to do? I got nothing in this dead old town
E
No I can't believe I live here now!
F#
So I'm searching for cheap thrills the way I know how

Bridge and Chorus:
F# (w/ Riff C x 1)
Ah-ah-ah-ah-ah-ah
E
Sixteen! So sweet!
F# (w/ Riff C x 1)
Ah-ah-ah-ah-ah-ah
E
Sixteen! So sweet!

[Outro]
F# C# A C# A (w/ Riff A x 5) 
C# (w/ Riff B x 1)



************************************

| b  Bend
| /  Slide up
| r  Release
| x  Dead note
| h  Hammer-on
Outros vídeos desta música
    22 exibições
      • ½ Tom
      • A
      • Bb
      • B
      • C
      • Db
      • D
      • Eb
      • E
      • F
      • F#
      • G
      • Ab
    • Adicionar à lista

    Afinação da cifra

    Afinador online

      0 comentários

      Ver todos os comentários

      Conseguiu tocar?

      0Tocaram0Ainda não

      Grave um vídeo tocando Fluffy e nos envie!

      Toque também

      1. Imagem do artista Lucy RoseShiver Lucy Rose
      2. Imagem do artista WallaJust Tired Walla
      3. Imagem do artista The Joy FormidableEndtapes The Joy Formidable
      4. Imagem do artista Swim Deepbeach justice Swim Deep

      Entre para o Cifra Club PRO

      Tenha acesso a benefícios exclusivos no App e no Site

      • Chega de anúncios

      • Badges exclusivas

      • Mais recursos no app do Afinador

      • Atendimento Prioritário

      • Aumente seu limite de lista

      • Ajude a produzir mais conteúdo

      Cifra Club Pro

      Aproveite o Cifra Club com benefícios exclusivos e sem anúncios
      Cifra Club Pro
      Aproveite o Cifra Club com benefícios exclusivos e sem anúncios
      Ops (: Contenido disponible sólo en portugués.
      OK