Cifra Club

Lisbon

Wolf Alice

Cifra: Principal (violão e guitarra)
Selo Cifra Club: esta cifra foi revisada para atender aos critérios oficiais da nossa Equipe de Qualidade.
tom: E
E|--------------------------------------------------|
B|--------------------------------------------------|
G|--------------------------------------------------|
D|--------------------------------------------------|
A|--------------------------------------------------|
E|7-7-7-7-7-7-7-7-7-7-7-7-7-7-7-7-11-11-11-11-11-11-|

E|--------------------------------------------------|
B|--------------------------------------------------|
G|--------------------------------------------------|
D|--------------------------------------------------|
A|--------------------------------------------------|
E|11-11-11-11-11-11-11-11-11-11-9-9-9-9-9-9-9-9-9-9-|

E|--------------------------------------------|
B|--------------------------------------------|
G|--------------------------------------------|
D|--------------------------------------------|
A|--------------------------------------------|
E|9-9-9-9-9-9-7-7-7-7-7-7-7-7-7-7-7-7-7-7-7-7-|

[Lead Guitar]
(Similarly this is the lead line that is played in the intro, verse but only the 1st loud Chorus section. One 
string is played open to create a drone effect while the other moves around it. Bend the fretted string to 
create a sitar style vibrato effect.)
E|--------------------------------------------------|
B|--------------------------------------------------|
B|12-12-12-12-12-12-12-12-12-12-12-12-12-14-14-14-9-|
B|-0--0--0--0--0--0--0--0--0--0--0--0--0--0--0--0-0-|
E|--------------------------------------------------|
B|--------------------------------------------------|

E|--------------------------------------------------|
B|--------------------------------------------------|
B|9-9-9-9-9-9-9-9-9-9-9-9-12-12-12-7-7-7-7-7-7-7-7--|
B|0-0-0-0-0-0-0-0-0-0-0-0--0--0--0-0-0-0-0-0-0-0-0--|
E|--------------------------------------------------|
B|--------------------------------------------------|

E|-------------------------------------------------|
B|-------------------------------------------------|
B|7-7-7-7-7-7-7-7-12-12-12-12-12-12-12-12-12-12-12-|
B|0-0-0-0-0-0-0-0--0--0--0--0--0--0--0--0--0--0--0-|
E|-------------------------------------------------|
B|-------------------------------------------------|

E|---------------|
B|---------------|
B|12-12-12-12-12-|
B|-0--0--0--0--0-|
E|---------------|
B|---------------|

[Rhythm Guitar - lead up to loud chorus](‘Swallow the fear’)
E|--------------------------------------------------|
B|--------------------------------------------------|
G|--------------------------------------------------|
D|--------------------------------------------------|
A|--------------------------------------------------|
E|12-12-12-12-12-12-12-12-12-12-12-12-12-12-12-9-9-9|

E|--------------------------|
B|--------------------------|
G|--------------------------|
D|--------------------------| (x2)
A|--------------------------|
E|9-9-9-9-9-9-9-9-9-9-9-9-9-|

E|--------------------------------------------------|
B|--------------------------------------------------|
G|--------------------------------------------------|
D|--------------------------------------------------|
A|--------------------------------------------------|
E|4-4-4-4-4-4-4-4-4-4-4-4-4-4-4-4-2-2-2-2-2-2-2-2-2-|

E|--------------|
B|--------------|
G|--------------|
D|--------------|
A|--------------|
E|2-2-2-2-2-2-2-|

[Lead Guitar - lead up to loud chorus](‘Swallow the fear’).
E|--------------------------------------------------|
B|--------------------------------------------------|
B|14-14-14-14-14-14-14-14-16-16-16-16-16-16-16-16-19|
B|-0--0--0--0--0--0--0--0--0--0--0--0--0--0--0--0--0|
E|--------------------------------------------------|
B|--------------------------------------------------| 

E|--------------------------------------------|
B|--------------------------------------------|
B|19-19-19-19-19-19-19-19-19-19-19-19-19-19-19|
B|-0--0--0--0--0--0--0--0--0--0--0--0--0--0--0|(x2)
E|--------------------------------------------|
B|--------------------------------------------|

E|--------------------------------------------------|
B|--------------------------------------------------|
B|16-16-16-16-16-16-16-16-16-16-16-16-16-16-16-16-14|
B|-0--0--0--0--0--0--0--0--0--0--0--0--0--0--0--0--0|
E|--------------------------------------------------|
B|--------------------------------------------------|

E|--------------------------------------------|
B|--------------------------------------------|
B|14-14-14-14-14-14-14-14-14-14-14-14-14-14-14|
B|-0--0--0--0--0--0--0--0--0--0--0--0--0--0--0|
E|--------------------------------------------|
B|--------------------------------------------|

(Lead Guitar – Final chorus and outro.
For the first half of the chorus play all the strings open, scrape your pic along the strings and just 
generally make noise!! Then halfway though and until the end of the song this riff comes in.)
E|--------------------------------------------|
B|--------------------------------------------|
B|-2--4--0--4--7--0--7--9--0--9-12--0-12--0-14|
B|-0--0--0--0--0--0--0--0--0--0--0--0--0--0--0|
E|--------------------------------------------|
B|--------------------------------------------|

Structure:
Intro
Verse
Lead up chorus
Loud instrumental chorus
Verse
Lead up chorus
Loud instrumental chorus
outro
Outros vídeos desta música
    44 exibições
      • ½ Tom
      • A
      • Bb
      • B
      • C
      • Db
      • D
      • Eb
      • E
      • F
      • F#
      • G
      • Ab
    • Adicionar à lista

    Afinação da cifra

    Afinador online

      0 comentários

      Ver todos os comentários

      Conseguiu tocar?

      0Tocaram0Ainda não

      Grave um vídeo tocando Lisbon e nos envie!

      Toque também

      1. Imagem do artista Lucy RoseShiver Lucy Rose
      2. Imagem do artista WallaAngels And Demons Walla
      3. Imagem do artista The Joy FormidableEndtapes The Joy Formidable
      4. Imagem do artista Swim Deepbeach justice Swim Deep

      Entre para o Cifra Club PRO

      Tenha acesso a benefícios exclusivos no App e no Site

      • Chega de anúncios

      • Badges exclusivas

      • Mais recursos no app do Afinador

      • Atendimento Prioritário

      • Aumente seu limite de lista

      • Ajude a produzir mais conteúdo

      Cifra Club Pro

      Aproveite o Cifra Club com benefícios exclusivos e sem anúncios
      Cifra Club Pro
      Aproveite o Cifra Club com benefícios exclusivos e sem anúncios
      Ops (: Contenido disponible sólo en portugués.
      OK