Cifra Club

Storms

Wolf Alice

Cifra: Principal (violão e guitarra)
Selo Cifra Club: esta cifra foi revisada para atender aos critérios oficiais da nossa Equipe de Qualidade.
tom: Gm
C           Eb         Bb        F
I wrote my name on the bathroom door
      C       Eb
I was here
  Bb           F
Afraid to seek more

C        Eb           Bb      F
Close my eyes on this violet night
          C       Eb
I'm still here
Bb           F
Dead in your life


[Pre-Chorus]
C            Eb                  Bb
Time doesn't slow (time doesn't slow)
                     F
The world won't lend hands (the world won't lend hands)
C                  Eb                        Bb
What you've got to show (what you've got to show)
                  F
And who are your friends (your friends)


[Chorus]
      C             Bb
Your friends, your friends
      Eb            C
Your friends, your friends
      C             Bb
Your friends, your friends
      Eb            C
Your friends, your friends
      C             Bb
Your friends, your friends
      Eb            C
Your friends, your friends
      C             Bb
Your friends, your friends
      Eb            C
Your friends, your friends


[Verse 2]
C          Eb         Bb    F
For black paint says nobody cares
           C       Eb
That I was here
           Bb        F
Yeah, I'm full well aware
           C
That I'm a slave to my demons
       Eb
And my demons are dead
 Bb                     F
Excuses to stay, and my demon's my friend
   C              Eb
So fight me, find me
        Bb       F
Send an angel


[Pre-Chorus]
C            Eb                  Bb
Time doesn't slow (time doesn't slow)
                     F
The world won't lend hands (the world won't lend hands)
C                  Eb                        Bb
What you've got to show (what you've got to show)
                  F
And who are your friends (your friends)


[Chorus]
      C             Bb
Your friends, your friends
      Eb            C
Your friends, your friends
      C             Bb
Your friends, your friends
      Eb            C
Your friends, your friends
      C             Bb
Your friends, your friends
      Eb            C
Your friends, your friends
      C             Bb
Your friends, your friends
      Eb            C
Your friends, your friends
C
Your friends


[Solo]
   C                                 Eb
E|-8-8-8-8-8-8-8-8-8-8-8-8-8-8-8-8-|-11-11-11-11-11-11-11-11-11-11-11-11-11----------|
B|---------------------------------|----------------------------------------11-11-11-|
G|---------------------------------|-------------------------------------------------|
D|---------------------------------|-------------------------------------------------|
A|---------------------------------|-------------------------------------------------|
E|---------------------------------|-------------------------------------------------|

   Bb                                                Bb
E|-------------------------------------------------|-------------------------------------------|
B|-11-11-11-11-11-10-10----------------------------|-------------------------------------------|
G|----------------------10-10-10-10-10-10-10-10-10-|-8-8-8-8-10-10-10-10-10-10-10-10-8-8-10-10-|
D|-------------------------------------------------|-------------------------------------------|
A|-------------------------------------------------|-------------------------------------------|
E|-------------------------------------------------|-------------------------------------------|

   C                                 Eb
e|-8-8-8-8-8-8-8-8-8-8-8-8-8-8-8-8-|-11-11-11-11-11-11-11-11-11-11-11-11-11-11-11-11-|
B|---------------------------------|-------------------------------------------------|
G|---------------------------------|-------------------------------------------------|
D|---------------------------------|-------------------------------------------------|
A|---------------------------------|-------------------------------------------------|
E|---------------------------------|-------------------------------------------------|

   F                                                 F
e|-13-13-13-13-13-13-13-13-13-13-13-13-13-13-13-13-|-13b-13b-13b-13b-13b-13b-13b-13b-13b-13b-13b-13b-13b15-|
B|-------------------------------------------------|-------------------------------------------------------|
G|-------------------------------------------------|-------------------------------------------------------|
D|-------------------------------------------------|-------------------------------------------------------|
A|-------------------------------------------------|-------------------------------------------------------|
E|-------------------------------------------------|-------------------------------------------------------|


[Outro]
Dsus4   C   F   Dsus4
   Hey!
Dsus4   C   F   Dsus4
   Hey!
Dsus4   C   F   Dsus4
   Boo!
Dsus4   C   F   Dsus4
   Hey!
Dsus4
Outros vídeos desta música
    8 exibições
      • ½ Tom
      • Am
      • Bbm
      • Bm
      • Cm
      • C#m
      • Dm
      • Ebm
      • Em
      • Fm
      • F#m
      • Gm
      • G#m
    • Adicionar à lista

    Afinação da cifra

    Afinador online

      0 comentários

      Ver todos os comentários

      Conseguiu tocar?

      0Tocaram0Ainda não

      Grave um vídeo tocando Storms e nos envie!

      Toque também

      1. Imagem do artista Lucy RoseShiver Lucy Rose
      2. Imagem do artista WallaJust Tired Walla
      3. Imagem do artista The Joy FormidableEndtapes The Joy Formidable
      4. Imagem do artista Swim Deepbeach justice Swim Deep

      Entre para o Cifra Club PRO

      Tenha acesso a benefícios exclusivos no App e no Site

      • Chega de anúncios

      • Badges exclusivas

      • Mais recursos no app do Afinador

      • Atendimento Prioritário

      • Aumente seu limite de lista

      • Ajude a produzir mais conteúdo

      Cifra Club Pro

      Aproveite o Cifra Club com benefícios exclusivos e sem anúncios
      Cifra Club Pro
      Aproveite o Cifra Club com benefícios exclusivos e sem anúncios
      Ops (: Contenido disponible sólo en portugués.
      OK