Cifra Club

Were Not The Same

Wolf Alice

Cifra: Principal (violão e guitarra)
Selo Cifra Club: esta cifra foi revisada para atender aos critérios oficiais da nossa Equipe de Qualidade.
tom: Bm
E|E|-------------------------------------------------------------------------------||
                             We're Not The Same - Wolf Alice 
E|E|-------------------------------------------------------------------------------||
Tabbed by:rosettastoned06

Tuning:Standard 

Intro/Verse/Chorus 
E|---------------------------------------------------------------------------|
B|---------------------------------------------------------------------------|
G|---------------------------------------------------------------------------|
D|------6--------6b------| 6--------4---4-------4------------------------------|
A|------7-----4-(4)---------7----------4---------4------------------------------|
E|---5------0-2-(2)------5------0-2---------0h2--2------------------------------|

Guitar 2 (Ellie) Might be a Boss GT Multieffects Pedal not sure though
E|---------------------------------------------------------------------------|
B|-----12--14--10--7~-----12--14--15--/17~~----------------------------------|
G|---------------------------------------------------------------------------|
D|---------------------------------------------------------------------------|
A|---------------------------------------------------------------------------|
E|---------------------------------------------------------------------------|

Use Distortion for last chorus 

************************************

| /   slide up
| \   slide down
| h   hammer-on
| p   pull-off
| ~   vibrato
| +   harmonic
| x   Mute note
| b   Bend
| pb  Pre-bend
| br  Bend release
| pbr Pre-bend release
| brb Bend release bend
Outros vídeos desta música
    1 exibições
      • ½ Tom
      • Am
      • Bbm
      • Bm
      • Cm
      • C#m
      • Dm
      • Ebm
      • Em
      • Fm
      • F#m
      • Gm
      • G#m
    • Adicionar à lista

    Afinação da cifra

    Afinador online

      0 comentários

      Ver todos os comentários

      Conseguiu tocar?

      0Tocaram0Ainda não

      Grave um vídeo tocando Were Not The Same e nos envie!

      Toque também

      1. Imagem do artista Lucy RoseShiver Lucy Rose
      2. Imagem do artista WallaJust Tired Walla
      3. Imagem do artista The Joy FormidableEndtapes The Joy Formidable
      4. Imagem do artista Swim Deepbeach justice Swim Deep

      Entre para o Cifra Club PRO

      Tenha acesso a benefícios exclusivos no App e no Site

      • Chega de anúncios

      • Badges exclusivas

      • Mais recursos no app do Afinador

      • Atendimento Prioritário

      • Aumente seu limite de lista

      • Ajude a produzir mais conteúdo

      Cifra Club Pro

      Aproveite o Cifra Club com benefícios exclusivos e sem anúncios
      Cifra Club Pro
      Aproveite o Cifra Club com benefícios exclusivos e sem anúncios
      Ops (: Contenido disponible sólo en portugués.
      OK