Cifra Club

Collider

X Ambassadors

Cifra: Principal (violão e guitarra)
Selo Cifra Club: esta cifra foi revisada para atender aos critérios oficiais da nossa Equipe de Qualidade.
tom: D
E|----------------------------------------------|
B|----------------------------------------------|
G|----------------------------------------------|
D|----------5-----------------------------------|
A|----5h--7-----7---------5---------------------|
E|-0---------------5h--7-----3h--5--3-----------|


[Bridge]
                   1st-2nd-3rd time
E|-----------------------------------|
B|-----------------------------------|
G|-----------------------------------|
D|-----------------------------------|
A|---5-7---5-7---5-7---5-7---5-5-5---|
E|-0-----0---------------------------|

                           4th time
E|---------------------------------|
B|---------------------------------|
G|---------------------------------|
D|-------------------5-5-5-4-4-----|
A|---5-7---5-7---5-7-----------5-5-|
E|-0-----0-------------------------|

[Chorus]
E|--------------------------------------|
B|--------------------------------------|
G|--------------------------------------| repeat till end
D|--5---5------------------5---5--------|
A|----7---7-5-7--------------7---7-5-7--|
E|--------------3---5---7--------------0|
00:00 / 00:00
Outros vídeos desta música
Repetir
Outros vídeos desta música
6 exibições
    • ½ Tom
    • A
    • Bb
    • B
    • C
    • Db
    • D
    • Eb
    • E
    • F
    • F#
    • G
    • Ab
  • Adicionar à lista

Afinação da cifra

Afinador online

    0 comentários

    Ver todos os comentários

    Entre para o Cifra Club PRO

    Tenha acesso a benefícios exclusivos no App e no Site

    • Chega de anúncios

    • Mais recursos no app do Afinador

    • Atendimento Prioritário

    • Aumente seu limite de lista

    • Ajude a produzir mais conteúdo

    00:00 / 00:00

    Cifra Club Pro

    Aproveite o Cifra Club com benefícios exclusivos e sem anúncios
    Cifra Club Pro
    Aproveite o Cifra Club com benefícios exclusivos e sem anúncios
    OK